Give Kudos?
Are you sure you want to give kudos to WildCard76?

Add To Songbook?
Are you sure you want to add this song to your songbook?


2,428 bands | 32,444 songs
Search: Register FREE! | Login
Browse Songs:
Browse Bands:
Tool Panel
Discuss This Song

1 2 3 4 5





John Anderson - Bend It Till It Breaks (Solo)
Album: John Anderson - Greatest Hits (1996)
Submitter: WildCard76 (270) on 1/18/03
Month Views: 75 | Total Views: 2,466
Moderator: pettyjr | Report This Song?
Song Tools

Comment

Songbook

Kudos

Show Chords

Print

BEND IT 'TILL IT BREAKS
John Anderson

First Guitar Solo




E-----(9)----10---9-9--------------12--10--9-----10---9----------------
B----------------------10---------x---------------------10-------------
G--------------------------11----x-------------------------11----------
D----------------------------------------------------------------------
A----------------------------------------------------------------------
E----------------------------------------------------------------------


E-------------------12--10--9---10--9---(9)------------10----12--10----
B----10------------x-------------------------10-----10----10--------14-
G--11--11/9--7h9--x-----------------------------11---------------------
D----------------------------------------------------------------------
A----------------------------------------------------------------------
E----------------------------------------------------------------------


E------------------------------17------19-----19b(Full)r19--17-----
B--(14)-----14---17~~~------17------17-----17-----------------20---
G-------14---------------18----------------------------------------
D------------------------------------------------------------------
A------------------------------------------------------------------
E------------------------------------------------------------------
 Comments (click here to add a non-facebook comment)
Home | FAQs | Privacy | Terms | Advertise | Contact
Top 100 Tab Sites