Give Kudos?
Are you sure you want to give kudos to 6stringer?

Add To Songbook?
Are you sure you want to add this song to your songbook?


2,862 bands | 36,210 songs
Search: Register FREE! | Login
Browse Songs:
Browse Bands:
Tool Panel
Discuss This Song

1 2 3 4 5



John Anderson - I Wish I Could've Been There (Intro)
Album: John Anderson - Greatest Hits (1996)
Submitter: 6stringer (1) on 1/14/03
Month Views: 11 | Total Views: 4,537
Moderator: pettyjr | Report This Song?
Song Tools

Comment

Songbook

Kudos

Show Chords

Print

The slide from 10 down to 8 is slower & not loud.

(electric)
----------------------------------------------------
------8--------------------8-8s10--s8---------------
--7s9---9s7------------7s9----------------9s7-------
--------------10v-----------------------------10----
----------------------------------------------------
----------------------------------------------------


This is the acoustic in the background. This is the basic
layout. It's not played very loud...or at least not into 
the mic. You gotta listen to it to get the timing and rythm
though.

strum C    A[min]             C    A[min]    G    C
-0---------0---0--------------0-----0---0----3----0------
-1---------1---1--------------1-----1---1----2----1------
-0---------0h2-0--------------0-----0h2-0----0----0------
-2---------2---2--------------2-----2---2---------2------
-3----------------------------3-------------------3------
---------------------------------------------------------

 Comments (click here to add a non-facebook comment)
Home | FAQs | Privacy | Terms | Advertise | Contact
Top 100 Tab Sites