Give Kudos?
Are you sure you want to give kudos to Koichi Kondo?

Add To Songbook?
Are you sure you want to add this song to your songbook?


2,696 bands | 34,980 songs
Search: Register FREE! | Login
Browse Songs:
Browse Bands:
Tool Panel
Discuss This Song

1 2 3 4 5





John Michael Montgomery - Hello L-o-v-e (Chord)
Album: Home to You (1999)
Submitter: Koichi Kondo (668) on 1/28/19
Month Views: 94 | Total Views: 133
Moderator: Ray Terry | Report This Song?
Song Tools

Comment

Songbook

Kudos

Show Chords

Print

Hello L-O-V-E
Written by Jeffrey Steele & Danny Wells
Recorded by John Michael Montgomery

(In Drop D Tuning)

(Intro.)
      
    F                                                     F   Eb
E:|-----------------|-----------------|-----------------|--------------|
B:|-----------------|-----------------|-----------------|--------------|
G:|-1-2-------------|-----------------|-1-2-------------|--------------|
D:|-----3---1-3-----|-----------------|-----3---1-3-----|--------------|
A:|-------3-------0-|-----------0-----|-------3-------0-|--------------|
D:|-------------6---|-3-0-1-0-6-------|-------------6---|-3---1--------|

    F                                                     F   Eb
E:|-----------------|-----------------|-----------------|--------------|
B:|-----------------|-----------------|-----------------|--------------|
G:|-1-2-------------|-----------------|-1-2-------------|--------------|
D:|-----3---1-3-----|-----------------|-----3---1-3-----|--------------|
A:|-------3-------0-|-----------0-----|-------3-------0-|--------------|
D:|-------------6---|-3-0-1-0-6-------|-------------6---|-3---1--------| 
 Comments (click here to add a non-facebook comment)
Home | FAQs | Privacy | Terms | Advertise | Contact
Top 100 Tab Sites