Give Kudos?
Are you sure you want to give kudos to PierreLeveillee?

Add To Songbook?
Are you sure you want to add this song to your songbook?


2,618 bands | 34,323 songs
Search: Register FREE! | Login
Browse Songs:
Browse Bands:
Tool Panel
Discuss This Song

1 2 3 4 5





Johnny Cash - 706 Union (tabs) (Chord)
Submitter: PierreLeveillee (0) on 8/21/14
Month Views: 40 | Total Views: 1,897
Moderator: JDNELSON | Report This Song?
Song Tools

Comment

Songbook

Kudos

Show Chords

Print

7:06 UNION
                            A                                           E
e----------------------------------------------------------------------------|
D---------------------------------------------------------------------------|
G----------------------------------------------------------------------------|
D2-0-------------------------------------------------------------------2-2--|
A-----2---------------------2/4-4-(4)-4-5--4-22/4-4--------2/4-4-4-5-4------|
E-------4-0-1-2-3-4---0-2-0----------------------------0-2-0-----------------|
                                               A         B7
e----------------------------------------------------------------------------|
D---------------------------------------------------------------------------|
G----------------------------------------------------------------------------|
D(2)-2-3--4-4--4-2-02/4-2----2---2-2--2-1-2--------------------------------|
A----------------------------------------------4-4--------2/4-4--4-5--4-2----|
E----------------------------0---0-----------------0-2-0---------------------|
  A                           E
e----------------------------------------------------------------------------|
D---------------------------------------------------------------------------|
G----------------------------------------------------------------------------|
D-----------------------------2-2--2-3--4-4--4-2-0--2/4-2----2--------------|
A-2/4-4----------2/4-4--4-5-4------------------------------------------------|
E--------0-2-0----------------------------------------------0---0------------|
                                       A                  D
e----------------------------------------------------------------------------|
D---------------------------------------------------------------------------|
G----------------------------------------------------------------------------|
D---------------------------------2---2-2----------2/4-4(4)-4-5--4-22/4-4-|
A-7-7------5-5-----4-4-----2-0---0---------0-0-2-0---------------------------|
E-----0-0------0-0-----0-0-----2-----0---------------------------------------|
                                                                                   E
e----------------------------------------------------------------------------|
D---------------------------------------------------------------------------|
G----------------------------------------------------------------------------|
D4-2-0---------------------------------2/4-4--4-5--4-22/4-4--3-4-5-6--4--2-|
A--------4-4--4-5--4-2-2/44--(4)-0-2-0--------------------------------------|
E----------------------------------------------------------------------------|
         D                                    A        E
e----------------------------------------------------------------------------|
D---------------------------------------------------------------------------|
G----------------------------------------------------------------------------|
D----------------------------------------------------2-2--2-3--4-4--4-2-0---|
A-------2/4-4--4-5--4-22/4-4--------2/4--4(4)-4-5-4------------------------|
E-0-2-0------------------------0-2-0-----------------------------------------|
                   E                             A
e----------------------------------------------------------------------------|
D---------------------------------------------------------------------------|
G----------------------------------------------------------------------------|
D2/4--2---2------------------------------------2---2-2----------------------|
A---------------7-7-----5-5-----4-4-----2-0---0----------0-------------------|
E--------0---0------0-0-----0-0-----0-0-----2-----0--------------------------|







Carl Perkins
  E                        A                                  E
e-5--7--7/9--9--9--10\9-7--7/9--9-----5--7--7/9--9--9--10--9--9/12--12-------|
D---------------------------------5--5---------------------------------12---|
G-6--7--7/9--9--9--10\9-7--7/9--9--6--6--7--7/9--9--9-------------------13---|
              E                                                             A
e-12-14--14--14---14\12-----14--14\12-----------12------12---------12--12----|
D12-----12--12---------15-----------------12---12--12------12/13--13--13/-14|
G------------------------------------------13---13---------------------------|
                F                                              A
e------5--7--7/9--9---9--10\9--7--7/9--9------5--7--7/9--9--(9)--9--10--9----|
D--5--------------------------------------5--5------------------------------|
G---------7--7/9--9---9--10\9--7--7/9--9---6--6--7--7/9--9--(9)--------------|
  E      
e-9/12--12---------12/14--14-----14---14\12------12/14---14\12--(12)--12--10-|
D-------------12----------------------------15------------------------------|
G--------------13-----------------------------------------------------9---11-|
            A
e-9---7---5--------5--------3------------------------------------------------|
D--------5---6/7--7--7--5--5--5---------------------------------------------|
G-9---7---6---5/6--6--6--4--4--4---------------------------------------------|
  D                                       A
e----------------------------------------------------------------------------|
D---------------------------------------------------------------------------|
G----------------------------------------------------------------------------|
D2/4--4--(4)--4-5---4-2--2/4--4---4-2-0-------------------------------------|
A-----------------------------------------4-4---4-5--4-2--2/4--4--(4)--0-2-0-|
E----------------------------------------------------------------------------|
  D                                 E
e----------------------------------------------------------------------------|
D---------------------------------------------------------------------------|
G----------------------------------------------------------------------------|
D2/4--4--4-5--4-2--2/4--4--3-4-5---6\5-5-6--X-6-X--4-X--0-4--0-4-0--2-X-0-2-|
A----------------------------------------------------------------------------|
E----------------------------------------------------------------------------|
                     A                                             E
e----------------------------------------------------------------------------|
D---------------------------------------------------------------------------|
G----------------------------------------------------------------------------|
D0-2-0---2---------------------------------------------------------2--2-2-3-|
A-------------------2/4--4---4-5--4-2--2/4--4---------2/4-4--4-5-4-----------|
E------------0-2-0-----------------------------0-2-0-------------------------|
                                                                A
e----------------------------------------------------------------------------|
D---------------------------------------------------------------------------|
G----------------------------------------------------------------------------|
D4---4--(4)-4-2-0--2/4-2----2------------------------------------2---2-2-2--|
A---------------------------------7-7-----5-5-----4-4-----2-0---0------------|
E--------------------------0---0------0-0-----0-0-----0-0-----2-----0--------|
   A           E                             A                      A
e----------------------------------------------------------------------------|
D------------------------------------------------------------------2--------|
G-------------------------------------------------------------------2--------|
D---2----2-0-------------------------------------------------------2--------|
A--0-----------7-7-----5-5-----4-4------2-0---0--2--3-2--0----0-----0--------|
E-------0----------0-0-----0-0-----0-0------2--------------2-----0-----------|
 
 Comments (click here to add a non-facebook comment)
Home | FAQs | Privacy | Terms | Advertise | Contact
Top 100 Tab Sites