Give Kudos?
Are you sure you want to give kudos to macg1?

Add To Songbook?
Are you sure you want to add this song to your songbook?


2,608 bands | 34,253 songs
Search: Register FREE! | Login
Browse Songs:
Browse Bands:
Tool Panel
Discuss This Song

1 2 3 4 5





Johnny Cash - All Over Again(correct) (Tab)
Submitter: macg1 (52) on 5/22/05
Month Views: 113 | Total Views: 8,126
Moderator: JDNELSON | Report This Song?
Song Tools

Comment

Songbook

Kudos

Show Chords

Print

INTRO:
  (F)           (Bb)
D----3-33---33----|
A--3------3----3-1|

Bb 
Everytime I look at you I fall in love
F
All over again

Everytime I think of you it all begins
          Bb   Bb7
All over again

Eb
One little dream at night and I can dream all day
   Bb                              Bb7
It only takes a memory to thrill me
Eb
One little kiss from you and I just fly away
Bb                              F
Pour me out your love until you fill me
  Bb                           Bb7
I wanna fall in love beginning from the start
Eb        Bb
All over again
Eb                            Bb
Show me how you stole away my heart
F         Bb
All over again

SOLO: These are the notes used. Listen for moderation of them.

   F
D----3-33---3-33---3-33---3-33---3-33---3-33---------------
A--3------3------3------3------3------3------3---33-33---33
E----------------------------------------------1-------1---
   F
D--------------------------------------------------------3
A--33---33-33---33-33---33-33---33-33---33-33---33-33--3--
E-----1-------1-------1-------1-------1-------1-----------

   F            Bb   Bb7
D--33---3-33------|
A-----3------3--1-|

Repeat Chorus:
TAG:
F         Bb
All over again
F         Bb
All over again
F         Bb
All over again
F         Bb
All over again
F         Bb
All over again
F         Bb
All over again 
F         Bb
All over again
F         Bb
All over again 
 Comments (click here to add a non-facebook comment)
Home | FAQs | Privacy | Terms | Advertise | Contact
Top 100 Tab Sites