Give Kudos?
Are you sure you want to give kudos to baracuba?

Add To Songbook?
Are you sure you want to add this song to your songbook?


2,668 bands | 34,785 songs
Search: Register FREE! | Login
Browse Songs:
Browse Bands:
Tool Panel
Discuss This Song

1 2 3 4 5





Johnny Cash - Bandana (instrumental) (Tab)
Submitter: baracuba (1) on 4/24/08
Month Views: 10 | Total Views: 4,362
Moderator: JDNELSON | Report This Song?
Song Tools

Comment

Songbook

Kudos

Show Chords

Print

Bandana
Johnny Cash
Luther Perkins

KEY: A and G

INTRO:
      A   G    A   G    A   G    A    G   A
E|--------3--------3--------2---------2-----|
B|----2--------2--------2--------2--------2-|
G|----2--------2--------2--------2--------2-|
D|----2--------2--------2--------2--------2-|
A|--0-----2--------2--------2---------2-----|
E|--------3--------3--------3---------3-----|


VERSE: (KEY OF A)
  A                                                         A7
E|------------------------------------------------------------------------------|
B|------------------------------------------------------------------------------|
G|------------------------------------------------------------------------------|
D|-------------0-2----------------------------------0-2-------------------------|
A|-------0-2-4-----4-2-------0--------0-------0-2-4------4-2---------0-0-2-4----|
E|-0-2-4---------------0-2-4---0-2-4----0-2-4-----------------0-2-4-------------|



E|------------------------------------------------------|
B|------------------------------------------------------|
G|------------------------------------------------------|
D|-4-2-0-2-4-2-0-2-4-2-0-----------------0-2------------|
A|-----------------------4-2-------0-2-4-----4-2--------|
E|---------------------------0-2-4----------------------|


REFRAIN:
      A   G    A   G    A   G    A    G
E|--------3--------3--------2---------2------|
B|----2--------2--------2--------2-----------|
G|----2--------2--------2--------2-----------|
D|----2--------2--------2--------2-----------|
A|--0-----2--------2--------2---------2------|
E|--------3--------3--------3---------3------|


VERSE: (KEY OF G)
  G
E|----------------------------------------------------------------|
B|----------------------------------------------------------------|
G|-----0-------0------0----------------0-------0------0-----------|
D|-0-2-----0-2----0-2---2-0--------0-2-----0-2----0-2---2-0-------|
A|--------------------------2-------------------------------2-----|
E|----------------------------3-------------------------------3---|


  C
E|-------------------------------------------------------|
B|-------------------------------------------------------|
G|-------------------------------------------------------|
D|-------------2-----------2---------2-------------------|
A|-----0-2-3-3-----0-2-3-3-----0-2-3---3-2-0-------------|
E|-3-3-----------3-----------3-----------------3---------|

  G        D                G
E|---------------------------------------------|
B|---------------------------------------------|
G|------------------2-------0------------------|
D|---------0----0-3-----0-2---2-0--------------|
A|---2-2-3------------------------2------------|
E|-3--------------------------------3----------|



REFRAIN:
      A   G    A   G    A   G    A    
E|--------3--------3--------2---------------|
B|----2--------2--------2--------2----------|
G|----2--------2--------2--------2----------|
D|----2--------2--------2--------2----------|
A|--0-----2--------2--------2---------------|
E|--------3--------3--------3---------------|

REPEAT ONE MORE TIME




 Comments (click here to add a non-facebook comment)
Home | FAQs | Privacy | Terms | Advertise | Contact
Top 100 Tab Sites