Give Kudos?
Are you sure you want to give kudos to BEFNME?

Add To Songbook?
Are you sure you want to add this song to your songbook?


2,681 bands | 34,877 songs
Search: Register FREE! | Login
Browse Songs:
Browse Bands:
Tool Panel
Discuss This Song

1 2 3 4 5





Johnny Cash - Get Rhythm (Intro)
Submitter: BEFNME (0) on 12/7/09
Month Views: 15 | Total Views: 4,231
Moderator: JDNELSON | Report This Song?
Song Tools

Comment

Songbook

Kudos

Show Chords

Print

Johnny Cash
Get Rhythm
Intro Tab
Tabbed by: James Jacobs
info at nclandservice.com



|-----------------------------
|-----------------------------
|-----------------------------
|--2---2---2---2--------------
|----4---4---4---4-2----------
|--------------------4-2b---0-
 ^^^Palm mute^^^^^^^----------


|-----------------------------------------------------------------
|----12-12-12-------12-12-12-------12-12-12-------12-12-12--------
|-13----------13-13----------13-13----------13-13------------13---
|-----------------------------------------------------------------
|-----------------------------------------------------------------
|-----------------------------------------------------------------


|-----------------------------------------------------------------
|---5-5-5-----5-5-5-----5-5-5-----5-5-5---------------------------
|-7-------7-7-------7-7-------7-7-------7-----------------
|-----------------------------------------2---2-2-2---2-2-2---2-2-2-4-2-4-2-4-5-4-2-
|--------------------------------------------4-------4-------4----------------------4
|------------------------------------------------------------------------------------

|------------
|------------
|------------
|------------
|--2---------
|----4-2b--0
 Comments (click here to add a non-facebook comment)
Home | FAQs | Privacy | Terms | Advertise | Contact
Top 100 Tab Sites