Give Kudos?
Are you sure you want to give kudos to bjthedj?

Add To Songbook?
Are you sure you want to add this song to your songbook?


2,733 bands | 35,225 songs
Search: Register FREE! | Login
Browse Songs:
Browse Bands:
Tool Panel
Discuss This Song

1 2 3 4 5



Kasey Chambers - Not Pretty Enough (Tab)
Album: Barricades & Brickwalls (2002)
Submitter: bjthedj (1) on 4/27/02 1 comment
Month Views: 9 | Total Views: 5,937
Moderator: EMRLDEYZS | Report This Song?
Song Tools

Comment

Songbook

Kudos

Show Chords

Print

Kasey Chambers - Not Pretty Enough

Tabbed by Bj Grace 
bjthedj85 at hotmail.com
www.bjsview.8m.com

Ive seen a few tabs of this song around but most are just chord progressions, 
heres the tabbed version im am sure it is right.
***CAPO ON 4TH FRET dont forget.. sounds so much better.***

x= small break, listen for reference.


|-----------------------x-2------|
|---------0-----------3-----3----|
|-------0-----------2------------|
|-----0-----------0--------------|
|---2-----------0----------------|
|--------------------------------|

|-----------------------x-0------|
|---------0-----------1-----1----|
|-------0-----------0------------|
|-----2-----------2--------------|
|---2-----------3----------------|
|--------------------------------|

Easy to figure out when u listen to the song. 
Chord Progression if you want to play it that way is G-D-Em-C.
 Comments (click here to add a non-facebook comment)
thanks for the tip mate. if you havent tried using the capo like it says, try tuning your guitar.
-bjthedj | 8/29/2005
Home | FAQs | Privacy | Terms | Advertise | Contact
Top 100 Tab Sites