Give Kudos?
Are you sure you want to give kudos to driller?

Add To Songbook?
Are you sure you want to add this song to your songbook?


2,751 bands | 35,343 songs
Search: Register FREE! | Login
Browse Songs:
Browse Bands:
Tool Panel
Discuss This Song

1 2 3 4 5



Kathy Mattea - 455 Rocket (Bass)
Album: The Definitive Collection (2006)
Submitter: driller (1) on 12/13/04
Month Views: 31 | Total Views: 4,293
Moderator: Ray Terry | Report This Song?
Song Tools

Comment

Songbook

Kudos

Show Chords

Print

455 ROCKET-KATHY MATTEA

verse C chord

G:----------------------------- 
D:----------------------------- 
A:--7-10-7---------------------
E:8--------8------------------- 

F chord

G:-----------------------------
D:--7-10-7---------------------
A:8-------8--------------------
E:-----------------------------

G chord

G:-----------------------------
D:--9-12-9---------------------
A:10------10-------------------
E:-----------------------------

THIS THE WAY I PLAY IT AN IT SOUNDS PRETTY DARN CLOSE.
THE CHORUS IS THAT SAME PATTERN JUST DOUBLE UP ON THE SECONDE NOTE ON THE WAY BACK
IT IS JUST LIKE 12 BAR BLUES.. JUST WITH THE 2 EIGHTH NOTES ON THE WAY BACK..
 Comments (click here to add a non-facebook comment)
Home | FAQs | Privacy | Terms | Advertise | Contact
Top 100 Tab Sites