Give Kudos?
Are you sure you want to give kudos to yinielin?

Add To Songbook?
Are you sure you want to add this song to your songbook?


2,632 bands | 34,462 songs
Search: Register FREE! | Login
Browse Songs:
Browse Bands:
Tool Panel
Discuss This Song

1 2 3 4 5





Keith Urban - All For You (Intro)
Album: Get Closer (2010)
Submitter: yinielin (3) on 4/29/11
Month Views: 36 | Total Views: 3,473
Moderator: urbanriffs | Report This Song?
Song Tools

Comment

Songbook

Kudos

Show Chords

Print

Tune down a halfstep.


Eb----------------------------------
Bb-----5-----5--------5----3--------
Gb---------------------------6-4-6--
Db-6/7---6/7----2-4-7---7-----------
Ab----------------------------------
Eb----------------------------------

Eb-----7-----7-5--------------------
Bb---------------------5---3--------
Gb---------------------------6-4-6--
Db-6/7---6/7-----2-4-7---7----------
Ab----------------------------------
Eb----------------------------------
 Comments (click here to add a non-facebook comment)
Home | FAQs | Privacy | Terms | Advertise | Contact
Top 100 Tab Sites