Give Kudos?
Are you sure you want to give kudos to axehappy?

Add To Songbook?
Are you sure you want to add this song to your songbook?


2,616 bands | 34,296 songs
Search: Register FREE! | Login
Browse Songs:
Browse Bands:
Tool Panel
Discuss This Song

1 2 3 4 5





Keith Urban - Arms Of Mary (Intro)
Album: Keith Urban (IMPORT) (2000)
Submitter: axehappy (177) on 5/13/03 4 comments
Month Views: 39 | Total Views: 6,599
Sound Byte: Listen
Moderator: urbanriffs | Report This Song?
Song Tools

Comment

Songbook

Kudos

Show Chords

Print

Keith Urban  -  Arms Of Mary  (intro)

By axehappy  -  axehappy at countrytabs.com


Either my guitar is out of tune, or the recording is a little detuned on
this song...lol
But this is the way its played..as far as I can make out.


**************************************************************************



   A(add9)   E          A(add9)   D            A(add9)   E

E-----0------------0-------0---------0h2-0--------0--------0-----
B------0--------0-0-0-------0-------3-----3--------0-------0-0---
G--2-2---2---1-1-----1--2-2---2----2-------2---2-2---2---1-------
D---2---2-2---2----------2---2-2--0---------0---2---2-2---2---2--
A----------------------------------------------------------------
E----------------------------------------------------------------

   F#m        Esus

E-------2-----0---|
B------2-2-2--0---|
G-----2---2---2---|
D--2/4--------2---|
A-------------2---|
E-------------0---|

 Comments (click here to add a non-facebook comment)
this intro sounds perfect to me, i love this song theres some mad sax in it :P do you think you could tab out the whole song maybe? and maybe some others from "1991" as well like "the river" and "dont go" or "lovin on the side"? thanks!!

abby
-hanson_fan123 | 10/10/2005
I think the song is actualy out of tune. Just enough to be really, really frustrating.
-wernerwilhelm | 11/1/2005

what CD of keith urbans is this song on
please tell me
-DanielStaggs | 2/14/2006
Here's a link to the cd on amazon:

http://www.amazon.com/gp/product/B0000507EL/sr=8-5/qid=1139954422/ref=pd_bbs_5/102-5421959-6044110?%5Fencoding=UTF8
-axehappy | 2/14/2006
Home | FAQs | Privacy | Terms | Advertise | Contact
Top 100 Tab Sites