Give Kudos?
Are you sure you want to give kudos to mooman2679?

Add To Songbook?
Are you sure you want to add this song to your songbook?


2,605 bands | 34,184 songs
Search: Register FREE! | Login
Browse Songs:
Browse Bands:
Tool Panel
Discuss This Song

1 2 3 4 5





Keith Urban - Better Life (end Solo) (Solo)
Album: Be Here (2004)
Submitter: mooman2679 (5) on 8/11/05 4 comments
Month Views: 42 | Total Views: 11,249
Moderator: urbanriffs | Report This Song?
Song Tools

Comment

Songbook

Kudos

Show Chords

Print

I think this may be Keith's new single...tabbed by request.




Tyler 

mooman2679 at gmail.com


......................................................................
** = Hold note while playing the notes after it...let the note ring...
......................................................................


e----------------------------------------------------------------------
B--15-17-17p15-----17-17p15-----15~~--17-17p15-----17-17p15-----15~~---
G-------------16h19--------14h16--------------16h19--------14h16-------
D----------------------------------------------------------------------
A----------------------------------------------------------------------
E----------------------------------------------------------------------


e----------------------------------------------------------------------
B--17-17p15-----17-17p15-----15~------15-----15-----15-----15-----15---
G----------16h19--------14h16----14h16--14h16--14h16--14h16--14h16-----
D----------------------------------------------------------------------
A----------------------------------------------------------------------
E----------------------------------------------------------------------


e----------------------------------------------------------------------
B--15-17-17p15-----17-17p15-----15~~--17-17p15-----19-17p15-----15~~---
G-------------16h19--------14h16--------------16h19--------14h16-------
D----------------------------------------------------------------------
A----------------------------------------------------------------------
E----------------------------------------------------------------------


e-----------------------------------------------------------------17~~-
B--17-17p15-----15-----15-----15-----15-17-----15-----17-15-17/19~-----
G----------14h16--14h16--14h16--14h16-----14h16--14h16-----------------
D----------------------------------------------------------------------
A----------------------------------------------------------------------
E----------------------------------------------------------------------


        **                       **                            **
e--17p14----17p14-14-14-14--17p14----17-14-14-14-15-17----17p14--------
B-------15~~---------------------15~~-----------------15~~-----15~~----
G----------------------------------------------------------------------
D----------------------------------------------------------------------
A----------------------------------------------------------------------
E----------------------------------------------------------------------


                                                       **
e--17-14-14-14-14-17b~~-17b~~-17b~~-17b~~-17br~~--17p14----17-14-14-14-14~~---
B------------------------x-----x-----x----x------------15~~-------------------
G-----------------------------------------------------------------------------
D-----------------------------------------------------------------------------
A-----------------------------------------------------------------------------
E-----------------------------------------------------------------------------


e--17p14----17-14-14h15h17-17--14~~--17p14----17p14--17p14--17p14--17p14------
B-------15~~-----------------15-----------15~~-----15-----15-----15-----15----
G-----------------------------------------------------------------------------
D-----------------------------------------------------------------------------
A-----------------------------------------------------------------------------
E-----------------------------------------------------------------------------


                  let ring...
e--17b~-17b~-17b~-17~~~~~~~---------
B--------x----x---------------------
G-----------------------------------
D-----------------------------------
A-----------------------------------
E-----------------------------------

 Comments (click here to add a non-facebook comment)
Perfect... thanx lots!!!
-KU_isbestever | 8/11/2005
cool nice job man

-Derek_Cave99 | 8/31/2005
Can any1 get like the little licks starting in the 2nd verse?
-fx_racing2 | 10/29/2005
I CAN!!!
-KU_isbestever | 11/2/2005
Home | FAQs | Privacy | Terms | Advertise | Contact
Top 100 Tab Sites