Give Kudos?
Are you sure you want to give kudos to KU_isbestever?

Add To Songbook?
Are you sure you want to add this song to your songbook?


2,620 bands | 34,366 songs
Search: Register FREE! | Login
Browse Songs:
Browse Bands:
Tool Panel
Discuss This Song

1 2 3 4 5





Keith Urban - Better Life (Lead)
Album: Be Here (2004)
Submitter: KU_isbestever (2) on 11/2/05 8 comments
Month Views: 36 | Total Views: 9,220
Moderator: urbanriffs | Report This Song?
Song Tools

Comment

Songbook

Kudos

Show Chords

Print

This is the 2nd verse lead.  It starts after he hits the G 
chord and sings.


This after "We can dream as big as the sky"
                    
                    (D)
E---------------------------------------------
B---------------------------------------------
G----5/7-7-9-11-9-7------5/7-7-9-11-7---------
D---------------------------------------------
A----3/5-5-7-9--7-5------3/5-5-7-9--5---------
E---------------------------------------------



This after "Someday we're going to fly"

                     (D)
E----------------------------------------------------------
B----------------------------------------------------------
G--4p2p0----------5/7-7-9-11-9-7------5/7-7-9-11-7---------
D-----4p2p0------------------------------------------------
A--------4p2p0-0--3/5-5-7-9--7-5------3/5-5-7-9--5---------
E----------------------------------------------------------
  .....pm......


This after "This road we're on"

                     (A)
E----------------------------------------------
B----------------------------------------------
G---4/6-6-6\4-2--------------------------------
D----------------------------------------------
A----------------------------------------------
E----------------------------------------------

This after "You know it might be long"  

                   (G)
E----------------------------------------------
B----------------------------------------------
G----------------------------------------------
D---2bh-2-2br-0--------------------------------
A----------------------------------------------
E----------------------------------------------

This after "My faith is strong"

                    (A)
E----------------------------------------------
B-----------8----------------------------------
G---4/6-6-6------------------------------------
D----------------------------------------------
A----------------------------------------------
E----------------------------------------------

Then hit a C for "It's all that really matters"




That's about it.  Just leave a comment if you need anything else added
to the tab.




Comments/Corrections greatly apprciated!!!
 Comments (click here to add a non-facebook comment)
Thank you so much,sounds good
-fx_racing2 | 11/2/2005
In your 2nd riff, each of the three "4p0" should be "4p2p0"

other than that, it looks good
-tayball89 | 11/3/2005
the 4p2p0 sounds like way to much. The riff is quick and you can hear only 7 notes in it. I already have them tabbed. I think its 4p0. Someone else comment on what you think about this. Who knows.. maybe im missing it?
-KU_isbestever | 11/3/2005
I just saw keith in concert last night, and payed close attention to that part. I'm positive he's playing 4p2p0 on those 3 strings. Sure it's alot jammed in there, and it may be tough to hear (although if you listen closely you can) but you can definately see his fingers hitting all those notes and hear the note change when he does. It's similiar to the 4p2p0 part in the solo in Who Wouldnt Want to be ME. Go back and watch his live music video of it on cmt.com, you can see it clearly if i remember correctly
-tayball89 | 11/5/2005
yea, im going to agree on the 4p2p0 too, it has a fuller sound, good tab though
-Djhall038 | 11/13/2005
Ok im still not hearin it but since yall all think its there ill change it. You could probably play it either way but ill put that since thats what the majority seems to think.

I still wanna hear wat everyone else has to say about that part!
-KU_isbestever | 11/13/2005
I've seen Keith live several times, watched on his live DVD, and also tonight on the CMA's and he's clearly using 4p2p0 everytime.

Excellent tab.
-urbanriffs | 11/15/2005
Does Anyone have any pointers for the solo at the end? Ive been playing for almost a year and correct me if im wrong but should i just break it down into sections and practice and practice?
-stsuperman | 2/12/2006
Home | FAQs | Privacy | Terms | Advertise | Contact
Top 100 Tab Sites