Give Kudos?
Are you sure you want to give kudos to boxelder?

Add To Songbook?
Are you sure you want to add this song to your songbook?


2,630 bands | 34,428 songs
Search: Register FREE! | Login
Browse Songs:
Browse Bands:
Tool Panel
Discuss This Song

1 2 3 4 5





Keith Urban - Better Life (Solo)
Album: Be Here (2004)
Submitter: boxelder (1) on 4/15/05 7 comments
Month Views: 22 | Total Views: 10,725
Moderator: urbanriffs | Report This Song?
Song Tools

Comment

Songbook

Kudos

Show Chords

Print

Better Life - Keith Urban
Solo
questions/comments/complaints email boxelder at hlinet.com

b - bend
bh - bend, hold
br - bend, release
p - pull off
h - hammer on
pm - palm mute
~ - vibrato

Guitar 1 plays 1st 1/2 then a 2nd gutiar slides in and 
plays 2nd 1/2.

DROP D TUNING:  
E
B
G
D
A
D

Guitar 1
E-----------------------------------------------------
B-----------------------------------------------------
G-----------------------------------------------------
D-----------------------------0----2brp0--------------
A--2bh--2b-2bh-2-2r-2p0---0h2---2---------------------
D-----------------------4----------------4h5-/5~------


E-----------------------------------------------------
B-----------------------------------------------------
G-----------------------------------------------------
D-----------------------------------0-2bp0------------
A-----------------------------0--0h2------------------
D---5pm5pm5pm----2brp0----2h4-------------------------


E-----------------------------------------------------
B-----------------------------------------------------
G-----------------------------------------------------
D--------0-------0------------------------------------
A--0-0h2---2p0h2---2br2~------------------------------
D-----------------------------------------------------

Guitar 2
E--2/--9--9---9--10---12-12-12-12-12-10-9-------------
B--2/--10-10--10-10---10-10-10-10-10-10-10------------
G------9--9---9--9----9--9--9--9--9--9----------------
D-----------------------------------------------------
A-----------------------------------------------------
E-----------------------------------------------------


E----7-----x-x-5h7-7-7-7-5----------------------------
B----8--8--x-x-8---8-8-8---8--------------------------
G-------7---------------------------------------------
D-----------------------------------------------------
A-----------------------------------------------------
D-----------------------------------------------------


E-----------------------------------------------------
B--10--x-10----10---10---8--5----3--------------------
G--9bh-x-9r----7----6----7----4~---2-4---2--0---------
D-------------------------------------5---4~---2--2~~-
A-----------------------------------------------------
D-----------------------------------------------------


                *bend in and out of pitch (D) 
E-----------------------------------------------------
B-----------------------------------------------------
G-----------------------------------------------------
D-----------------------------------------------------
A--2~0---2h4-*4b~~~~~~~-------------------------------
D-----------------------------------------------------
 Comments (click here to add a non-facebook comment)
Great tab, im 12 and I like too play stuff like this when my uncle comes down, and ive used alot of your tabs in a gig I done last week. I just wanted too say thanks alot.
-travis_hall | 6/2/2005
hey, sounds good...I give it a 10
-zizzy34 | 4/15/2005
this sounds awesome! great job!
-moeurban | 4/17/2005
How about the outro?
-bufflo | 4/22/2005
he said he was workin on it???

-Derek_Cave99 | 4/26/2005
I saw him play it on Conan O Brian show and its PERFECT!!! The only thing he does different is that he plays up on the fretboard on the second part, but u have all the right notes.
-KU_isbestever | 8/13/2005
Can any1 get the little licks starting on the 2nd verse?
-fx_racing2 | 10/29/2005
Home | FAQs | Privacy | Terms | Advertise | Contact
Top 100 Tab Sites