Give Kudos?
Are you sure you want to give kudos to Custom?

Add To Songbook?
Are you sure you want to add this song to your songbook?


2,612 bands | 34,278 songs
Search: Register FREE! | Login
Browse Songs:
Browse Bands:
Tool Panel
Discuss This Song

1 2 3 4 5





Keith Urban - Better Life (Tab)
Album: Be Here (2004)
Submitter: Custom (0) on 3/23/06
Month Views: 34 | Total Views: 8,143
Moderator: urbanriffs | Report This Song?
Song Tools

Comment

Songbook

Kudos

Show Chords

Print

Keith Urban
Better Life

Drop D 

INTRO
6 Riffs

Guitar 1

Palm Mute*
Don't Depress String(*)

2 Riffs 

 
   D    D U D      D U D     D U D U D U
E--4--x--4-4-4--x--4-4-4--x--4-4-4-4-4-4---
B--4--x--4-4-4--x--4-4-4--x--4-4-4-4-4-4---
G--4--x--4-4-4--x--4-4-4--x--4-4-4-4-4-4---
D--4--x--4-4-4--x--4-4-4--x--4-4-4-4-4-4---
A--4--x--4-4-4--x--4-4-4--x--4-4-4-4-4-4---
E--4--x--4-4-4--x--4-4-4--x--4-4-4-4-4-4---


2x's (4 Riffs)

   D     D     D U D U     D     D     D U        U
E--4--x--4--x--4-4-4-4--x--4--x--4--x--4-4--x--x--4--
B--4--x--4--x--4-4-4-4--x--4--x--4--x--4-4--x--x--4--
G--4--x--4--x--4-4-4-4--x--4--x--4--x--4-4--x--x--4--
D--4--x--4--x--4-4-4-4--x--4--x--4--x--4-4--x--x--4--
A--4--x--4--x--4-4-4-4--x--4--x--4--x--4-4--x--x--4--
E--4--x--4--x--4-4-4-4--x--4--x--4--x--4-4--x--x--4--

   D U D        D U D U     D     D     D U        U
E--4-4-4--x--x--4-4-4-4--x--4--x--4--x--4-4--x--x--4--
B--4-4-4--x--x--4-4-4-4--x--4--x--4--x--4-4--x--x--4--
G--4-4-4--x--x--4-4-4-4--x--4--x--4--x--4-4--x--x--4--
D--4-4-4--x--x--4-4-4-4--x--4--x--4--x--4-4--x--x--4--
A--4-4-4--x--x--4-4-4-4--x--4--x--4--x--4-4--x--x--4--
E--4-4-4--x--x--4-4-4-4--x--4--x--4--x--4-4--x--x--4--


Guitar/Banjo 2
(Comes in 3rd Riff)

2 Riffs

E-------------------------------------------
B-------------------------------------------
G-------------------------------------------
D---------0---------0--0-------0---------0--
A---4h5-5---4-4h5-5------4h5-5---4-4h5-5----
E-0-----------------------------------------


Guitar 3
(Comes in 5th Riff)

Let Ring For 2 Riffs


E-------------------------------------------
B-------------------------------------------
G-------------------------------------------
D-------------------------------------------
A-------------------------------------------
E--0vvvvvvvvvvv-----------------------------



VERSE

Guitar 1


Palm Mute*

   D    D U D      D U D     D U D U D U
E--4--x--4-4-4--x--4-4-4--x--4-4-4-4-4-4---
B--4--x--4-4-4--x--4-4-4--x--4-4-4-4-4-4---
G--4--x--4-4-4--x--4-4-4--x--4-4-4-4-4-4---
D--4--x--4-4-4--x--4-4-4--x--4-4-4-4-4-4---
A--4--x--4-4-4--x--4-4-4--x--4-4-4-4-4-4---
E--4--x--4-4-4--x--4-4-4--x--4-4-4-4-4-4---



Guitar 2

E--x--------x--------x--------x-------------
B--x--------x--------x--------x-------------
G--x--------x--------x--------x-------------
D--x--------x--------x--------x-------------
A--x--------x--------x--------x-------------
E--x--------x--------x--------x-------------

E-------------------------------------------
B-------------------------------------------
G-------------------------------------------
D---------0---------0--0-------0---------0--
A---4h5-5---4-4h5-5------4h5-5---4-4h5-5----
E-0-----------------------------------------



Guitar 3

2x's

E--3----------------3-----------------------
B--3----------------3-----------------------
G--0----------------0-----------------------
D--0----------------0-----------------------
A--2----------------2-----------------------
E--x----------------x-----------------------

E-------------------------------------------
B-------------------------------------------
G-------------------------------------------
D-------------------------------------------
A-------------------------------------------
E--0vvvvvvvvvvvvvvvvv-----------------------


Pre Chorus


Guitar 1


Palm Mute*

   D    D U D      D U D     D U D U D U
E--4--x--4-4-4--x--4-4-4--x--4-4-4-4-4-4---
B--4--x--4-4-4--x--4-4-4--x--4-4-4-4-4-4---
G--4--x--4-4-4--x--4-4-4--x--4-4-4-4-4-4---
D--4--x--4-4-4--x--4-4-4--x--4-4-4-4-4-4---
A--4--x--4-4-4--x--4-4-4--x--4-4-4-4-4-4---
E--4--x--4-4-4--x--4-4-4--x--4-4-4-4-4-4---


Guitar 2


E------------------------------------------x--x--x--x--
B--------5-------------------------5-------x--x--x--x--
G--(4)/6---4b\2--------------(4)/6---4b\2--x--x--x--x--
D---------------------7--------------------x--x--x--x--
A---------------(7)/9---7b\5---------------x--x--x--x--
E------------------------------------------x--x--x--x--


Guitar 3


E--------------------
B--------------------
G-----------------5--
D--7----5----7----5--
A--7----5----7----3--
E--7----5----7-------


CHORUS


Guitar 1

Palm Mute*

   D    D U D      D U D     D U D U D U
E--4--x--4-4-4--x--4-4-4--x--4-4-4-4-4-4---
B--4--x--4-4-4--x--4-4-4--x--4-4-4-4-4-4---
G--4--x--4-4-4--x--4-4-4--x--4-4-4-4-4-4---
D--4--x--4-4-4--x--4-4-4--x--4-4-4-4-4-4---
A--4--x--4-4-4--x--4-4-4--x--4-4-4-4-4-4---
E--4--x--4-4-4--x--4-4-4--x--4-4-4-4-4-4---


Guitar 3

E-------------------------------------------
B-------------------------------------------
G--7----------------------------------------
D--7--------7--------5----------------------
A--5--------7--------5----------------------
E-----------7--------5----------------------

E-------------------------------------------
B-------------------------------------------
G--7----------------------------------------
D--7----7----2----4----5----7---------------
A--5----7----2----4----5----7---------------
E-------7----2----4----5----7---------------

E-------------------------------------------
B-------------------------------------------
G--7----------------------------------------
D--7--------7--------5----------------------
A--5--------7--------5----------------------
E-----------7--------5----------------------

E-------------------------------------------
B-------------------------------------------
G--------------------7----------------------
D--2--------5--------7----------------------
A--2--------5--------5----------------------
E--2--------5-------------------------------
 Comments (click here to add a non-facebook comment)
Home | FAQs | Privacy | Terms | Advertise | Contact
Top 100 Tab Sites