Give Kudos?
Are you sure you want to give kudos to joesklad?

Add To Songbook?
Are you sure you want to add this song to your songbook?


2,635 bands | 34,516 songs
Search: Register FREE! | Login
Browse Songs:
Browse Bands:
Tool Panel
Discuss This Song

1 2 3 4 5





Keith Urban - But For The Grace Of God (live) (Tab)
Album: Keith Urban (1999)
Submitter: joesklad (0) on 8/19/07 1 comment
Month Views: 6 | Total Views: 7,486
Moderator: urbanriffs | Report This Song?
Song Tools

Comment

Songbook

Kudos

Show Chords

Print

Keith Urban - But For the Grace of God - Livin Right Now DVD - 

- - Thanks to Nedz18 and CM129688 for the basic layout of this tab - - 
- - Here is a version with all the runs - - 
- - X = mute the strings - - 
- - Keith plam mutes the strings throughout this song - - 
- - Beginners might want to play this in finger picking style - - 

INTRO:               Dm7                              C5 
E-------------------------------------------------------------------------
B---------------------6---X-X--6-6-X---6----------------------------------
G---------------------5---X-X--5-5-X---5--------------5---X-X--5-5-X---5--
D---------------------7---X-X--7-7-X---7--------------5---X-X--5-5-X---3--
A------0--3--0--3/5---5---X-X--5-5-X---5---5/7-5-3-0--3---X-X--3-3-X---3--
E---3---------------------------------------------------------------------

                      Dm7    F5           C5
E-----------------------------------------------------------
B---------------------6--6----------------------------------
G---------------------5--5----------------5--X--5-5---5-----
D---------------------7--7---3--(----0--)-5--X--5-5---5-----
A------0--3--0--3/5---5--5---3--(0-3---0)-3--X--3-3---3-----
E---3------------------------1-------- ---------------------
                             (this fill is how I play it...)  
                             (keith just goes from F5 to C5)
Verse 1:
    C5                      Dm7
E----------------------------0----------------------------------------
B----------------------------6----------------------------------------
G---5------------------------5----------------------------------------
D---5------------------------7----------------------------------------
A---3------------------------5----------------------------------------
E---------------------------------------------------------------------
   I CAN HEAR THE NEIGHBORS, THEY'RE ARGUING AGAIN

    F5                                             C5
E---------------------------------------------------------------------
B---------------------------------------------------------------------
G--------------------------------------------------5---X-----5-5-X--5-
D--------------3---------3--------3-----3----------5---X-----5-5-X--5-
A--------------3---------3--------3-----3----------3---X-----3-3-X--3-
E---1----1-----------1---------1----1-1--------1----------------------
  AND THERE HASN'T BEEN PEACE ON OUR STREET, SINCE WHO KNOWS WHEN
(Sometimes keith play the bass first like this run - in a shuffle pattern)

E-----------------
B-----------------
G---------------5-
D---------------5-
A-----0h3/5--0--3-
E---3-------------
keith does this run from time to time
(play it quickly)
   
E----------------------------------------------------------------
B----------------------------6-----------------------------------
G-(5)------------------------5-----------------------------------
D-(5)------------------------7-----------------------------------
A-(3)------------------------5-----------------------------------
E----------------------------------------------------------------
  I DON'T MEAN TO LISTEN IN, BUT THE SHOUTIN IS SO LOUD

E------------------------------------------
B------------------------------------------
G---------------------------------5--------
D--3------------------------------5--------
A--3------------------------------3--------
E--1---------------------------------------
  I TURN UP THE RADIO TO DROWN IT OUT
   Dm7        Em7           F          G
e--------------------------------3-----3--
B--6-----------8----------------1--1---1--
G--5-----------7--------------2-----2--0--
D--7-----------9------------3----------0--
A--5-----------7-----------------------2--
E--------------------------------------3--
AND SILENTLY I SAY,   A LITTLE PRAYER, YEAH     

Chorus:
E---------------------------------------------------------------------
B--6------------------------------------------------------------------
G--5-----------------------------------------------5------------------
D--7-----------------------------------------------5------------------
A--5-----------------------------------------------3------------------
E---------------------------------------------------------------------
  BUT FOR THE GRACE OF GOD GO I, I MUST HAVE BEEN BORN A LUCKY GUY

E---------------------------------------------------------------------
B---------------6-----------------------------------------------------
G---------------5--------------------------------------------5--------
D---------------7-----------------------3--------------------5-------
A---------------5-----------------------3--------------------3--------
E---------------------------------------1-----------------------------
  HEAVEN ONLY KNOWS HOW I'VE BEEN BLESSED, WITH THE GIFT OF YOUR LOVE

E---------------------------------------------------------------------
B------------6--------------------------------------------------------
G------------5--------------------------------5-----------------------
D------------7--------------------------------5-----------------------
A------------5--------------------------------3-----------------------
E---------------------------------------------------------------------
  AND I LOOK AROUND AND ALL I SEE, IS YOUR HAPPINESS EMBRACING ME

E---------------------------------------------------------------------
B--6------------------------------------------------------------------
G--5----------------------------------------5-------------------------
D--7-------------------3--------------------5-------------------------
A--5-------------------3--------------------3-------------------------
E----------------------1----------------------------------------------
  OH LORD I'D BE LOST, BUT FOR THE GRACE OF GOD

Verse 2:
E-----------------
B-----------------
G---------------5-
D---------------5-
A-----0h3/5--0--3-
E---3-------------
                I CAN SEE....
                                                (Extremely Fast!!!!!!!)                     
E---------------------------------------------------------------------------
B----------------------------6------------------5h6--5h6-5------5h6--5h6--5-
G-(5)------------------------5------------------5-5--5-5-5---5--5-5--5-5--5-
D-(5)------------------------7------------------5h7--5h7-5-7----5h7--5h7--5-
A-(3)------------------------5------------------5-5--5-5-5------5-5--5-5--5-
E---------------------------------------------------------------------------
I CAN SEE THAT OLD MAN HE'S WALKIN' PAST OUR DOOR 

E------------------------------------------------------------------------
B------------------------------------------------------------------------
G---------------------------------------5----------------------5-----5-5-
D---3-----------------------------------5-----------------7-5--5-----5-5-
A---3-----------------------------------3-----------0h3/7------3-0-3-3-3-
E---1--------------------------------------------------------------------
AND I BEEN TOLD THAT HE'S RICH, BUT HE SEEMS SO POOR

E---------------------------------------------------------------------------
B-------------------------------------6------------------6/8----------------
G-5-----------------------------------5------------------7/9--7-5-5-------5-
D-5-----------------------------------7---------------------------5-------5-
A-3-----------------------------------5---------------------------3---0h3-3-
E-------------------------------------------------------------------3-------
CAUSE NO ONE COME TO CALL ON HIM AND HIS PHONE IT NEVER RINGS

E---------------------------------------------------------------------
B------------------------------------------------------5/6-3/5-1------
G--------------------------------------5---------------5/6-3/5-0---5--
D--3-----------------------------------5-----------------------2---5--
A--3-----------------------------------3-------------------------0h3--
E--1------------------------------------------------------------------
HE WONDERS THROUGH HIS EMPTY HOME SURROUNDED BY HIS THINGS
  Dm7         Em7           G          
E---------------------------3--------------------------------
B--6-----------8------------1------------------------1p0-----
G--5-----------7------------0----------------------------0---
D--7-----------9------------0--------------------------------
A--5-----------7------------2--------------------------------
E---------------------------3--------------------------------
AND SILENTLY I SAY, I SAY A LITTLE PRAYER, YES I DO...

- - Repeat Chorus - - 

- - Crowd Sings Chorus - - 

Ending:                F                   C
E--------------------------3------3-----3------
B-------------------------------1-----1----1---
G----------------------2-0----2-----2------0---
D------------------------------------------2---
A------------------------------------------3---
E----------------------------------------------
BUT FOR THE GRACE OF GOD...
 Comments (click here to add a non-facebook comment)
fantastic job on this one.. now if i could only get my playing to sound like his!!
-gmanontheradio | 7/8/2008
Home | FAQs | Privacy | Terms | Advertise | Contact
Top 100 Tab Sites