Give Kudos?
Are you sure you want to give kudos to denalitwinkie2s?

Add To Songbook?
Are you sure you want to add this song to your songbook?


2,634 bands | 34,497 songs
Search: Register FREE! | Login
Browse Songs:
Browse Bands:
Tool Panel
Discuss This Song

1 2 3 4 5





Keith Urban - Days Go By1 (Intro)
Album: Be Here (2004)
Submitter: denalitwinkie2s (8) on 1/3/05 3 comments
Month Views: 20 | Total Views: 5,439
Moderator: urbanriffs | Report This Song?
Song Tools

Comment

Songbook

Kudos

Show Chords

Print

Ok this is how I play it.  I'll admit i suck at guitar but this is 
close enough for me lol.  check out the soundbyte and let me know
 what you think.  I know Keith plays this in a much more complicated 
way but i cant do it lol    



CAPO 7TH FRET


-----------------------------------------------------------
-3---------------------------------------------------------
-0h2---2---4---2---0---------------------0--------------0--
-0-------------------------2---0-----0h2-----------0h2-----
-0-----------------------------------3----------3----------
-3---------------------------------------------------------

---------------------------------------------
-3-------------------------------------------
-0h2---2---4---2h4p2--------------------0----
-0------------------------2---0-----0h2------
-0----------------------------------3--------
-3-------------------------------------------
 Comments (click here to add a non-facebook comment)
Its alright. U played it way 2 fast on the soundbyte. It sounds kinda funny.
-KU_isbestever | 1/3/2005
ya i kinda noticed that after i submitted it.....i was too lazy to fix it lol
-denalitwinkie2s | 1/3/2005
where can i view the soundbite?
-evanshawnee | 1/6/2005
Home | FAQs | Privacy | Terms | Advertise | Contact
Top 100 Tab Sites