Give Kudos?
Are you sure you want to give kudos to KU_isbestever?

Add To Songbook?
Are you sure you want to add this song to your songbook?


2,619 bands | 34,323 songs
Search: Register FREE! | Login
Browse Songs:
Browse Bands:
Tool Panel
Discuss This Song

1 2 3 4 5





Keith Urban - Days Go By (perfect Riff) (Tab)
Album: Be Here (2004)
Submitter: KU_isbestever (2) on 11/25/04 10 comments
Month Views: 40 | Total Views: 10,094
Moderator: urbanriffs | Report This Song?
Song Tools

Comment

Songbook

Kudos

Show Chords

Print

Keith Urban- Days Go By (perfect riff)



This is the main riff played throughout the song.  
I found out that it is different from the intro since I
listen to this song probably 15 times a day.
Play this with the song and it will sound better.
I watched Keith doing this on the CMA Awards and figured it out 


E----------------------------------------------------------------
B-----------------------------------3---------3------------------
G-------7/9--9--11--9--7--4--0h2/4-----0h2/4---------------------
D----------------------------------------------------------------
A----------------------------------------------------------------
E----------------------------------------------------------------

E----------------------------------------------------------------
B-------------------------------------3---------3----------------
G-------7/9--9--11--9h11p9--7--0h2/4-----0h2/4-------------------
D----------------------------------------------------------------
A----------------------------------------------------------------
E----------------------------------------------------------------

Note: All of the intros are correct on the site.  This is played 
different than the intros.  Just wanted to clear that up.

Please comment and tell me if this is right or not.
 Comments (click here to add a non-facebook comment)
sounds good to me
-buckmaster122 | 12/22/2004
good job
-hollyluvschris | 12/28/2004
sounds good...can anyone clearifly for me what a pull off is..i have been playing for a while..but i still am not sure what it is and how to do it
-paramedic79ca21 | 2/28/2005
its the opposite of a hammer-on. You strum and quickly pull off and you hear the fret u pulled off too's sound. Actually its a unique sound but u know :)
-KU_isbestever | 2/28/2005
I'm sorry but when I listen to this ele guitar intro I can hear the open e string all he way through the riff... I am positive that its there...
-jwyels | 2/28/2005
good job
-sexy.boyz32 | 3/1/2005
The e string is not ringing. Its all on the G string. Im 100% positive bout that.

E---------
B--------- This is the equivelant of
G----9---- E--0--

Thats most likely what ur hearing.

-KU_isbestever | 3/1/2005
hey guys i know the intro perfect..i would submit it but im not a paying member...if anyone wants to know how to do it the right way..( the keith urban does it) email me at paramedic79ca@msn.com
-paramedicca | 4/7/2005
good job

-malcolm_duncan | 6/14/2005
are you sure its 0h2/4? sure its not 2h4?
-romans12:21 | 7/31/2008
Home | FAQs | Privacy | Terms | Advertise | Contact
Top 100 Tab Sites