Give Kudos?
Are you sure you want to give kudos to KU_isbestever?

Add To Songbook?
Are you sure you want to add this song to your songbook?


2,612 bands | 34,274 songs
Search: Register FREE! | Login
Browse Songs:
Browse Bands:
Tool Panel
Discuss This Song

1 2 3 4 5





Keith Urban - Days Go By (verse/chorus Riffs) (Tab)
Album: Be Here (2004)
Submitter: KU_isbestever (2) on 11/25/04 9 comments
Month Views: 25 | Total Views: 7,424
Moderator: urbanriffs | Report This Song?
Song Tools

Comment

Songbook

Kudos

Show Chords

Print

Keith Urban- Days Go By (verse/chorus riffs)



This is the walkdown in the chorus during "like a hand out 
the window in the wind".

E----------------------------------------------------------------
B----------------------------------------------------------------
G----------------------------------------------------------------
D----5--4--2--0------------------------------------------------------
A----------------------------------------------------------------
E----------------------------------------------------------------

Or an easier way (but not how he plays it live)

E------------------------------------------------
B------------------------------------------------
G--0---------------------------------------------
D----4--2--0-------------------------------------
A------------------------------------------------
E------------------------------------------------



This is the second verse riffs

Riff 1 (right after chorus)

E----------------------------------------------------------------
B---------------------------------------3--5bh--------------------
G--7/9--9--11--9h11p9--7--0h2/4--0h2/4---------------------------
D----------------------------------------------------------------
A----------------------------------------------------------------
E----------------------------------------------------------------


Riff 2 (one strum of the G string and bend twice)

E----------------------------------------------------------------
B--3-------------------------------------------------------------
G----2bhrbh--------------------------------------------------
D----------------------------------------------------------------
A----------------------------------------------------------------
E----------------------------------------------------------------

Riff 3

E--------0--3--2-------------------------------------------------
B--0--3-----------3bh--------------------------------------------
G----------------------------------------------------------------
D----------------------------------------------------------------
A----------------------------------------------------------------
E----------------------------------------------------------------

Riff 4 (during prechorus)

E----------------------------------------------------------------
B-----10br-8----------4bh----------------------------------------
G----------------------------------------------------------------
D----------------------------------------------------------------
A----------------------------------------------------------------
E----------------------------------------------------------------

Riff for shuvit (after "afraid of comin in last") 
Note: Capo on 7 for this riff only.

E----------------------------------------------------------------
B----3--3--3--3--3-----------------------------------------------
G----4--2--5--4--2-----------------------------------------------
D----------------------------------------------------------------
A----------------------------------------------------------------
E----3--3--3--3--3-----------------------------------------------

This is played on acoustic using the same fingering as intro.
Just comment again if this is the wrong riff.

If you need notes like time which these are played or anything just 
ask in comments
 Comments (click here to add a non-facebook comment)
Hey thats all good but i was wonderin about somethin else, In the beginning of the song before the chorus right after he says "Gunners like me afraid of commin in last" theres a little riff right after that. Im not good at figurin stuff out but if you could figure that riff out that would be awsome. thanks so far tho
-l80shuvit | 12/3/2004
Thanx alot man is sounds good!
-l80shuvit | 12/12/2004
KU is the best, we r going all the way to the final 4 this year to man! nice work by the way

-Ilovetoby | 1/13/2005
i cant print jus cuz im on the free version... how the F**K AM I SUPPOSED PLAY IT
-JD711 | 2/6/2005
JD711, ever heard of 'copy' and 'paste'? :-)
-riviera_71 | 2/10/2005
got a ? on days go by
could u possibly do the outro and post it or send it to me? or somethin. thx?

-lespaultbs182 | 2/21/2005
riviera_71, you cant copy and paste on the free vesion
-brandtfan | 4/14/2005
yes you can copy and paste the free version...........highlight all the text hit ctrl + c then open note pad and hit ctrl + v
-atekjunkie | 7/4/2005
I think riff 3 is more of a d chord. But I could be wrong.

pre>
e ------0-3-2----------------------------
B ----3-------3br------------------------
G --2---------------------------------
D ----------------------------------
A -----------------------------------
E ------------------------------------
/pre>
-srogers312 | 10/8/2005
Home | FAQs | Privacy | Terms | Advertise | Contact
Top 100 Tab Sites