Give Kudos?
Are you sure you want to give kudos to sandviga?

Add To Songbook?
Are you sure you want to add this song to your songbook?


2,636 bands | 34,517 songs
Search: Register FREE! | Login
Browse Songs:
Browse Bands:
Tool Panel
Discuss This Song

1 2 3 4 5





Keith Urban - Everybody (Intro)
Album: Love, Pain & the Whole Crazy Thing (2006)
Submitter: sandviga (0) on 7/23/09
Month Views: 20 | Total Views: 3,203
Moderator: urbanriffs | Report This Song?
Song Tools

Comment

Songbook

Kudos

Show Chords

Print

(Palm slap between chords)

--------------------
--3----2----3----2--
--2----2----2----2--   
--0----0----0----0--
--------------------
--------------------


-------0---------0--
--3----3----3----3--
--0---------0-------
--------------------
--------------------
--3----3----3----3--


Repeat
 Comments (click here to add a non-facebook comment)
Home | FAQs | Privacy | Terms | Advertise | Contact
Top 100 Tab Sites