Give Kudos?
Are you sure you want to give kudos to guitarnut1?

Add To Songbook?
Are you sure you want to add this song to your songbook?


2,636 bands | 34,517 songs
Search: Register FREE! | Login
Browse Songs:
Browse Bands:
Tool Panel
Discuss This Song

1 2 3 4 5





Keith Urban - For You (lead) (Lead)
Submitter: guitarnut1 (5) on 6/14/12
Month Views: 21 | Total Views: 3,475
Sound Byte: Listen
Moderator: urbanriffs | Report This Song?
Song Tools

Comment

Songbook

Kudos

Show Chords

Print

I think this is pretty close but I haven't figured out the double stops
that Keith plays in the 17/19 combos under the third Bm chord. Best I could
come up with was doubling the notes on the high E but it's still not right
...doesn't have the "tension" that it needs. Any suggestions welcome on that part.



   Bm          G                        Bm            G                 
-------------------------------------------------------------------
---14b15-15r14-12-10-12b13r12--------------------------------------
------------------------------9h11b12r11--6b7r6b7-4p0--------------
------------------------------------------------------2-0-2-0------
--------------------------------------------------------------2//5-
-------------------------------------------------------------------

   Bm                         G                 A               
---13/15-15-13/15-15-13/15-15---------------------------------------------
---17/19-19-17/19-19-17/19-19-19b20-20-gb18r17--14-17-12-15-10-12---------
------------------------------------------------------------------9-11----
-----------------------------------------------------------------------11-
--------------------------------------------------------------------------
--------------------------------------------------------------------------
  Em
-------------------------
--15/17-17-17-15-17-15---
--14/16-16-16-14-16-14---
-------------------------
-------------------------
-------------------------
 Comments (click here to add a non-facebook comment)
Home | FAQs | Privacy | Terms | Advertise | Contact
Top 100 Tab Sites