Give Kudos?
Are you sure you want to give kudos to gbo66?

Add To Songbook?
Are you sure you want to add this song to your songbook?


2,413 bands | 32,128 songs
Search: Register FREE! | Login
Browse Songs:
Browse Bands:
Tool Panel
Discuss This Song

1 2 3 4 5





Keith Urban - If Ever I Could Love (Tab)
Album: Defying Gravity (2009)
Submitter: gbo66 (0) on 3/24/09 1 comment
Month Views: 70 | Total Views: 10,678
Moderator: urbanriffs | Report This Song?
Song Tools

Comment

Songbook

Kudos

Show Chords

Print

If Ever I Could Love - Keith Urban
-----------------------------------------------------------------
Tabbed by:Blake
Email:gbo_66_hockey at hotmail.com

ya, this is my first tab, so dont be too rough on me
Sounds fairly accurate to me
email any questions/comments

Tuning:Standard
Intro/Verse
e|---------------------------------------------------------------|
B|---------------------------------------------------------------|
G|---7--7--6-6h7---------7--7--9-7-------------------------------|(x6)
D|-0--0--0------0-0----0--0--0----0-0----------------------------|
A|-----0--0------0---------0--0----0-----------------------------|
E|---------------------------------------------------------------|
            A  Bm
be starting over
G
I don't wanna 
A  Bm        G
Oh no, cause you might be the one, baby

Chorus
 
D                     G
If ever I could love, I think it could be with you
D                     G
If ever I thought I'd find somebody so true
D                    G
I wonder if you feel the same way that I do
D                    G
If ever I could love I think it could be with you

(Repeat Intro/Verse or same D=G progression)

You know I cant read your mind my love but it seems to me

Your heart and mine tonight are defying gravity

Somethin' so familiar its still so unknown
D                       G                         A   Bm
The closer that I get I swear it feels like coming home
G
I ready to be brave
A   Bm
Oh yeah, When you look at me and say
D                     G
If ever I could love, I think it could be with you
D                    G
If ever I thought Id find somebody so true
D                    G
I wonder if you feel the same way that I do
D                    G
If ever I could love I think it could be with you

Solo
e|---------------------------------------------------------------|
B|----15-17b---17r--17-15~ ------15-17b------19b-r-15~-----------|
G|0/15-----------------------0/15--------------------------------|
D|---------------------------------------------------------------|
A|---------------------------------------------------------------|
E|---------------------------------------------------------------|


e|----------------------------------------------15----17b(hold)-r-17~|
B|----15 17b-----17r~--15---------13/15/17---19----------------------|
G|0/15---------------------------------------------------------------|
D|-------------------------------------------------------------------|
A|-------------------------------------------------------------------|
E|-------------------------------------------------------------------|

(Intro/Verse)
If ever I could love, baby
If ever I could love
If ever I could love

If ever I could love, I think it could be with you
If ever I thought Id find somebody so true
I wonder if you feel the same way that I do
If ever I could love I think it could be with you

(ending)
D                                               G
I still never forget when the baby came and she walked out of my life
D
And got hurt so bad
                                 G
I swore Id never let another get inside this heart of mine
D                                                  G          
But she touched my hand and everything plan I had disappeared like a falling star
D                                                           G
Now theres a new beginning and Im moving to the rhythm of a new and braver heart

A braver heart 

(last little part)
e|-14h15/17-17--14h15/17-17----14h15/17-17--15p14h15p14-10-10----|
B|---------------------------------------------------------------|
G|---------------------------------------------------------------|
D|---------------------------------------------------------------|
A|---------------------------------------------------------------|
E|---------------------------------------------------------------|


| /  slide up
| \  slide down
| h  hammer-on
| p  pull-off
| ~  vibrato
| +  harmonic
| x  Mute note
 Comments (click here to add a non-facebook comment)
Awesome tab buddy... keep it up
-sjf17x | 8/8/2009
Home | FAQs | Privacy | Terms | Advertise | Contact
Top 100 Tab Sites