Give Kudos?
Are you sure you want to give kudos to axehappy?

Add To Songbook?
Are you sure you want to add this song to your songbook?


2,675 bands | 34,839 songs
Search: Register FREE! | Login
Browse Songs:
Browse Bands:
Tool Panel
Discuss This Song

1 2 3 4 5





Keith Urban - It's A Love Thing (Solo)
Album: Keith Urban (1999)
Submitter: axehappy (92) on 11/3/02 4 comments
Month Views: 38 | Total Views: 6,640
Moderator: urbanriffs | Report This Song?
Song Tools

Comment

Songbook

Kudos

Show Chords

Print

Keith Urban  -  It's A Love Thing (solo)

By axehappy  -  axehappy at countrytabs.com


***********************************************************************************

x   =   dead note                                          \   =   slide down

h   =   hammer-on                                          br  =   bend & release

b   =   bend                                               /   =   slide up

bh  =   bend & hold                                        ~   =   vibrato

r   =   release bend                                       p   =   pulloff

***********************************************************************************



E------------------------------------------------------------------------------
B------------------------------------------------------------------------------
G------------------------------------------------------------------------------
D------------------------------------------------------------------------------
A----------------------------------------------------------------------------5-
E--x-x-3-3-15\--x-x-2h3-x-x-x-x-2h3-x-x-2brb--x-x-2h3-x-x-x-x-2h3-x-x-3-3-5/7--


E----------------------------------------------------------------------------
B-------------------------------------------------------------15--15---------
G----------------4br-0-5br-4-7br-5-9br-7-12br-11-12-14b-14bh~~--14--14r-12---
D-------5-----5-7---------------------------------------------------------14-
A--5-5/7---5/7---------------------------------------------------------------
E----------------------------------------------------------------------------


E----------------------------------------5br-3-----------------------|
B----------------8-----------3----------------5br-3------------------|
G--12/14-12b~~7bh-7r-4br~-2/4-4p2p0-2-0------------2br-0-------------|
D-------------------------------------------------------2br-0--------|
A--------------------------------------------------------------------|
E------------------------------------------------------------5br-3---|


 Comments (click here to add a non-facebook comment)
COULD SOMEBODY TRY THIS TAB OUT SO I KNOW ITS CORRECT ? THANKS.
-lucylou | 7/26/2004
It sounds correct to me, thanks for the tab

-touc17 | 1/12/2005
U R GREAT AXE. Thanx A MILLION!!

-Derek_Cave99 | 1/21/2005
Thanks a bunch - I've been looking for this one everywhere - Yours is the best I've seen - You rock!
-urbancowboy1990 | 2/13/2006
Home | FAQs | Privacy | Terms | Advertise | Contact
Top 100 Tab Sites