Give Kudos?
Are you sure you want to give kudos to sweethomealabam?

Add To Songbook?
Are you sure you want to add this song to your songbook?


2,726 bands | 35,161 songs
Search: Register FREE! | Login
Browse Songs:
Browse Bands:
Tool Panel
Discuss This Song

1 2 3 4 5



Keith Urban - Raining On Sunday(live Intro1) (Intro)
Album: Golden Road (2002)
Submitter: sweethomealabam (3) on 11/13/05 1 comment
Month Views: 9 | Total Views: 4,997
Moderator: urbanriffs | Report This Song?
Song Tools

Comment

Songbook

Kudos

Show Chords

Print

This intro is awesome!
This is the part that keith plays not his second guitarist
Capo 4
All notes are relative to the position of the capo
when it says brbrbrbrbrbr that means bend release, 
bend release, bend release etc.
this live song is from Daytona Beach

E-----------------------------------------------------------
B-3b~~~3----------------------------------------------------
G-------4/2p0h2/4~~~----0-----------------------------------
D------------------------4brbrbrbrbr--5p4p2p0h2-5p2--x------
A----------------------------------------------------x------
E----------------------------------------------------x-12/--

E---------------------------10-12-12-12-12-12--12--12--12---
B--------7---7-8---8-10--12-15-15-15-15-15-15b-15b-15b-15b--
G-9~~~9/11-11-12-12--14--16---------------------------------
D-----------------------------------------------------------
A-----------------------------------------------------------
E-----------------------------------------------------------

E-12--12--12--12--12--12-----0-------------------0----------
B-15b-15b-15b-15b-15b-15b----0-5-0-1-------------0----5-0---
G----------------------------0---------0--0------0----------
D----------------------------2----------0--------2----------
A----------------------------2--------2--2-------2p0h2------
E----------------------------0-------3-----3-(3)-0----------

E--------------------
B-0h1----------------
G-------0--0---------
D--------0-----------
A------2--2----------
E-----3-----3-(3)_(3)

Please Comment and rate
 Comments (click here to add a non-facebook comment)
goo'job
-brandtfan | 9/24/2005
Home | FAQs | Privacy | Terms | Advertise | Contact
Top 100 Tab Sites