Give Kudos?
Are you sure you want to give kudos to NDN?

Add To Songbook?
Are you sure you want to add this song to your songbook?


2,726 bands | 35,161 songs
Search: Register FREE! | Login
Browse Songs:
Browse Bands:
Tool Panel
Discuss This Song

1 2 3 4 5



Keith Urban - Raining On Sunday (bass Tab) (Bass)
Album: Golden Road (2002)
Submitter: NDN (0) on 1/12/04
Month Views: 22 | Total Views: 4,797
Moderator: urbanriffs | Report This Song?
Song Tools

Comment

Songbook

Kudos

Show Chords

Print

Suggestions/improvements WELCOME ... I'm not a bass player, I am the lead guitarist/lead vocalist 
of my band and I figured out the bassline for my bass player ... so any improvements are
WELCOME and APPRECIATED!


Raining On Sunday - Bassline

Intro:
G|-----------------------------------
D|-----------------------------------
A|--------------/11-------------/9---
E|--4~~~~--4~~~------4~~~-2-4~~------



Verse:
    It ticks just like a timex, it never lets up on you
G|---------------------------------------------------------------
D|---------------------------------------------------------------
A|---------------------------------------------------------------
E|-----4---------------------------------0------------------------

    Who said life was easy, the job is never through
G|---------------------------------------------------------------
D|---------------------------------------------------------------
A|--2---------------------------1-----------------------------------
E|---------------------------------------------------------------

    It'll run us til we're ragged, it'll harden our hearts
G|---------------------------------------------------------------
D|---------------------------------------------------------/9----
A|---------------------------------------------------------------
E|--------4-------------------------6-7--0-----------------------

   And love could use a day of rest, before we both start fallin a_part
G|----------------------------------------------------------------------
D|----------------------------------------------------------------------
A|-----2-------------------------------2----4---------------------------
E|---------------------------------------------2-----------------0-2----



Chorus:
   And pray that its raining on Sunday, storming like crazy
G|-----------------------------------------------------------
D|-----------------------------------------------------------
A|-------------------2------------2-2---4---------------4-4--
E|-----------------------------2---------------------4-------

   We'll hide under the covers all afternoon
G|-----------------------------------------------------
D|-----------------------------------------------------
A|-------------------2------------------2------2-------
E|-0--------------------0-0-----------------------2-2--

  Baby whatever comes Monday,  can take care of itself cos
G|----------------------------------------------------------
D|------------------------------4---------------------------
A|---------2----------2--2--4/6-----------------------------
E|------------------2--------------2-------------0--2-2-----

   We've got better things that we could do, when its raining on 
G|----------------------------------------------------------------
D|----------------------------------------------------------------
A|------------------2---------------------------------------------
E|---0-----------------0-0---------------2---2pull0ham2-----------

   sunda____y
G|-----------------------------------------------------------
D|-----------------------------------------------------------
A|--2------2-2------------------------------------2----------
E|------2---------------2---0--2-2-----------0-------0-0-----



Verse:
   Your love is like religion, across in Mexico___
G|--------------------------------------------------------------
D|--------------------------------------------------------------
A|------------------------------------------2-------------------
E|------4--------------2--4-4---0--------------0-0--------------

  And your kiss is like the innocence    of a prayer nailed to a door
G|--------------------------------------------------------------------
D|--------------------------------------------------------------------
A|---------2----------------------2-2---------1------------------1-1--
E|-----------------------------2------/4----------------------2-------

   Oh surrender is much sweeter, whe_n we both let it go_
G|---------------------------------------------------------
D|---------------------------------------------------------
A|-------------------------------------------------2-------
E|-------4---------------2--4-4----6-7-0--------------0-0--

   Let the water wash our bodi__es clean, and love was our so________________________ul
G|-----------------------------------------------------------------------------------------
D|-----------------------------------------------------------------------------------------
A|--------------------------2---2---------2-4-------------------------------/8-8-8-8\\\\\--
E|-4---6---7--------------2---2---------------2----------0--2-2----1-1-1-1-----------------



Chorus:
   And pray that its raining on Sunday, storming like crazy
G|-----------------------------------------------------------
D|-----------------------------------------------------------
A|-------------------2------------2-2---4---------------4-4--
E|-----------------------------2---------------------4-------

   We'll hide under the covers all afternoon
G|-----------------------------------------------------
D|-----------------------------------------------------
A|-------------------2------------------2------2-------
E|-0--------------------0-0-----------------------2-2--

  Baby whatever comes Monday,  can take care of itself cos
G|----------------------------------------------------------
D|------------------------------4---------------------------
A|---------2----------2--2--4/6-----------------------------
E|------------------2--------------2-------------0--2-2-----

   We've got better things that we could do, when its raining on 
G|----------------------------------------------------------------
D|----------------------------------------------------------------
A|------------------2---------------------------------------------
E|---0-----------------0-0---------------2---2pull0ham2-----------

   sunda____y     (guitar solo...)
G|----------------------------------------------------------------
D|----------------------------------------------------------------
A|--2------2-2----4------4-4---------2---------------/8-8-8-\\\\--
E|------2------------4----------0-------0-0----1-1-1--------------



    And pray that its raining on sunday, storming like crazy
G|---------------------------------------------------------------
D|---------------------------------------------------------------
A|--\\\\\\\\\\\\\\\\\\2-------------------------------------------
E|---------------------------------------------------------------

   We'll hide under the covers all afternoon....
G|---------------------------------------------------
D|---------------------------------------------------
A|-----------------------------------------------9\--
E|---------------------------------------------------

  Baby whatever comes Monday,  can take care of itself cos
G|----------------------------------------------------------
D|------------------------------4---------------------------
A|---------2----------2--2--4/6-----------------------------
E|------------------2--------------2-------------0--2-2-----

   We've got better things that we could do, when its raining on 
G|----------------------------------------------------------------
D|----------------------------------------------------------------
A|------------------2---------------------------------------------
E|---0-----------------0-0---------------2---2pull0ham2-----------

   sunda____y     (guitar solo outro...)
G|---------------------------------------------
D|--------------------------------------------- \ These lines for
A|--2------2-2-----------------------2--------- / guitar solo outro
E|------2---------2--0---2-2----0-------0-0----/
 Comments (click here to add a non-facebook comment)
Home | FAQs | Privacy | Terms | Advertise | Contact
Top 100 Tab Sites