Give Kudos?
Are you sure you want to give kudos to incubus_fan23?

Add To Songbook?
Are you sure you want to add this song to your songbook?


2,641 bands | 34,568 songs
Search: Register FREE! | Login
Browse Songs:
Browse Bands:
Tool Panel
Discuss This Song

1 2 3 4 5





Keith Urban - Raining On Sunday Acoustic Extremely Accurate (Tab)
Album: Golden Road (2002)
Submitter: incubus_fan23 (1) on 4/13/05 11 comments
Month Views: 21 | Total Views: 20,123
Moderator: urbanriffs | Report This Song?
Song Tools

Comment

Songbook

Kudos

Show Chords

Print

Tabbed by:Jeremy Heninger 
Email:hhstennis_playa03 at yahoo.com

Tuning:Standard (capo on 4th), I wrote this entirely for acoustic.
I'll throw some of the lyrics in just to sort of help guide you. 
It's a fairly basic song if you know chords well enough.
All chords and notes are relevant to capo on 4th. Please rate!
Chords I use:
Em-022000
Cadd9-x32030
Gmaj-320030
D-xx0230
A/D-x02200
Dm7-xx0211
Am7-002010

Verse:
e|-0^--0--------------0^--0----------------0~--0~----------
B|-0^---0------3------0^---0------3--------0~--3~----------
G|-0^----5------0-----0^----5------0-------0~--0~-----0~---
D|-2^--------2---2~---2^--------2---2~-----2~--2~--0h2-----
A|-2^-------3-3-------2^-------3-3---------2~--3~----------
E|-0^------0----------0^------0------------0~--x~----------
                                       it ticks..on you
e|---------2--------0~--------0~----------------0---0~-----
B|-----3---3--------0~---0-0--3~------------3---3---3~-----
G|------0--2-----0--0~----0---0~-----0-------0--0---2~-----
D|---2-----0--0h2---2~--------2~--0h2-----0-----0-0-0~-----
A|--2-2----x--------2~--------3~---------2-2----2---x~-----
E|-3-------x--------0~--------x~--------3-------3---x~-----
  who said..      It'll run us....love could use...apart.

Chorus:
e|-0-0--00000-00--0-0--00000-00--0-0--00000-00--0-0--00000-
B|-3-3--33333-00--1-1--11111-00--3-3--33333-00--3-3--33333-
G|-0-0--00000-00--0-0--00000-00--0-0--00000-00--0-0--00000-
D|-0-0--00000-00--2-2--22222-00--2-2--22222-00--0-0--00000-
A|-2-2--22222-00--0-0--00000-00--3-3--33333-00--2-2--22222-
E|-3-3--33333-00--0-0--00000-00--x-x--xxxxx-00--3-3--33333-
   raining......  storming.....  We'll hide..afternoon.......
e|-0-0--00000-00--1-1--11111-00--0-0--00000-00--0~0~-0-0--
B|-3-3--33333-00--1-1--11111-00--3-3--33333-00--3~3~-3-3--
G|-0-0--00000-00--2-2--22222-00--0-0--00000-00--0~2~-0-0--
D|-0-0--00000-00--0-0--00000-00--2-2--22222-00--0~0~-0-0--
A|-2-2--22222-00--x-x--xxxxx-00--3-3--33333-00--2~x--2-2--
E|-3-3--33333-00--x-x--xxxxx-00--x-x--xxxxx-00--3~x--3-3--
   whatever..     take care...   we've got.....do..  on Sunday.
e|-1-1--11111-00--0-0--00000~------------------------------
B|-1-1--11111-00--3-3--33333~------------------------------
G|-2-2--22222-00--0-0--00000~------------------------------
D|-0-0--00000-00--2-2--22222~------------------------------
A|-x-x--xxxxx-00--3-3--33333~------------------------------
E|-x-x--xxxxx-00--x-x--xxxxx~------------------------------

Verse 2:
e|-----0-0--------0-0--------0-0--------0--------0-0-------
B|------0----------3----------3----------3--------0--------
G|---0----0-----0----0----------0-----2--------0----0----0-
D|--2-2--------2-2---------0---------0-0------2-2-------2-2
A|-2----------3-----------2-2-------0--------2---------3---
E|-----------------------3---------------------------------
   Your love..a cross..  kiss is..  prayer..surrender..we both.
e|-----0-0--------0-0--------0-------------------|
B|------3----------3----------3~-----------------|
G|--------0-----2----2-----2------*Repeat Chorus*|
D|---0---------0-0--------0-0--------------------|
A|--2-2-------0----------0-----------------------|
E|-3---------------------------------------------|
   water wash.love wash..
Chords for solo:
e|-0-0--00000-00--0-0--00000-00--0-0--00000-00--0-0--00~---
B|-3-3--33333-00--3-3--33333-00--2-2--22222-00--0-0--02~---
G|-0-0--00000-00--2-2--22222-00--0-0--00000-00--0-0--02~---
D|-0-0--00000-00--0-0--00000-00--2-2--22222-00--2-2--22~---
A|-2-2--22222-00--x-x--xxxxx-00--3-3--33333-00--2-2--20~---
E|-3-3--33333-00--x-x--xxxxx-00--x-x--xxxxx-00--0-0--00~---
   
Chorus 3: spoken softly                     *band re-enters*
e|-----0-0--------0--------0-0-----------0~--0-0--00000-00-
B|------3----------1--------3------------3~--3-3--33333-00-
G|--------0-----0--------0----0----------2~--0-0--00000-00-
D|---0---------2-2------2-2---------0----0~--0-0--00000-00-
A|--2-2-------0--------3-----------2-2---x---2-2--22222-00-
E|-3------------------------------3------x---3-3--33333-00-
  Raining..  storming..we'll hide....afternoon..whatever comes..
e|-1-1--11111-00--0-0--00000-00--0~0~--0-0--00000-00--1-1--
B|-1-1--11111-00--3-3--33333-00--3~3~--3-3--33333-00--1-1--
G|-2-2--22222-00--0-0--00000-00--0~2~--0-0--00000-00--2-2--
D|-0-0--00000-00--2-2--22222-00--0~0~--0-0--00000-00--0-0--
A|-x-x--xxxxx-00--3-3--33333-00--2~x---2-2--22222-00--x-x--
E|-x-x--xxxxx-00--0-0--00000-00--3~x---3-3--33333-00--x-x--
  take care..     we've got.... sunday.
e|-1-1--11111----------------------------------------------
B|-1-1--11111----------------------------------------------
G|-2-2--22222----------------------------------------------
D|-0-0--00000----------------------------------------------
A|-x-x--xxxxx----------------------------------------------
E|-x-x--xxxxx----------------------------------------------
                   (play these last 3 chords til fade out!)
e|-00--0-0--00000--0-0--00000-00--1-1--11111-00--0-0-
B|-00--3-3--33333--3-3--33333-00--1-1--11111-00--3-3--
G|-00--0-0--00000--0-0--00000-00--2-2--22222-00--0-0--
D|-00--2-2--22222--0-0--00000-00--0-0--00000-00--2-2--
A|-00--3-3--33333--2-2--22222-00--x-x--xxxxx-00--3-3--
E|-00--x-x--xxxxx--3-3--33333-00--x-x--xxxxx-00--x-x--

e|-0-0--00000----------------------------------------------
B|-3-3--33333----------------------------------------------
G|-0-0--00000----------------------------------------------
D|-2-2--22222----------------------------------------------
A|-3-3--33333----------------------------------------------
E|-x-x--xxxxx----------------------------------------------
                   When it's raining on Sunday...... 

That's it please rate and make any comments, enjoy!Peace out..

| ^  upsrtoke
| /  slide up
| \  slide down
| h  hammer-on
| p  pull-off
| ~  let ring
| +  harmonic
| x  Mute note
 Comments (click here to add a non-facebook comment)
I really like the detailed tabs to this one. Makes it easier for us novices.
-kenchristner | 4/14/2005
It would be great if you could tab You'll Think of Me and Your Everything this way.
-kenchristner | 4/14/2005
This is a great tab.I second kenchristner's comment. Those tabs would be GREAT with this setup.
-sablonde589 | 4/15/2005
Well right now I am working on completing Makin' Memories of us, You'll Think of me, Days go by and you're my better half, check out my other tabs I have for Keith Urban and rate them or make comments on those too, they are pretty detailed. Thanks for the nice comments!
Jeremy
-eah_06 | 4/19/2005
If someone can send me your everything in a file I will tab it out because a firewall at my college doesnt let us download music anymore. so if you want it bad enough send me the song cuz I dont have that album. thanks again
Jeremy
-eah_06 | 4/19/2005
Also check out my version on there goes my life by kenny chesney, its very detailed like this one and its very good too if you listen only to the acoustic guitar playing in the song!!
Please rate it and make comments on it
-eah_06 | 4/20/2005
On the first line after the E minor instead of going high E- 0 B-0 G-5 its easier if you go high E-0 B-0 B-1. thats How Keith Urban does it. other than that u did a pretty good Job
-tayball89 | 8/29/2005
yeah I guess it's just how you play it whatever is most comfortable for you since it is the same note its not a huge deal but thanks for letting me know that.
-hhstennis_playa | 9/28/2005
another sweet lick to use right after the E-0 B-0 B-1 could be :

e-----------0-
B-----------0-
G------3----0-
D-----0-0---2-
A----4---4--2-
E-3/5-------0-

he does this on his live dvd... its using the regular C chord then sliding ur finger up 2 frets a piece
-CM129688 | 12/8/2005
Nice job on this tab. couldn't have done it better myself
-Drummerdoug07 | 12/9/2005
Doug
Thats just because your a drummer
-GeneI4208 | 12/30/2005
Home | FAQs | Privacy | Terms | Advertise | Contact
Top 100 Tab Sites