Give Kudos?
Are you sure you want to give kudos to mooman2679?

Add To Songbook?
Are you sure you want to add this song to your songbook?


2,641 bands | 34,568 songs
Search: Register FREE! | Login
Browse Songs:
Browse Bands:
Tool Panel
Discuss This Song

1 2 3 4 5





Keith Urban - She's Gotta Be(alternate Verson) (Solo)
Album: Be Here (2004)
Submitter: mooman2679 (4) on 4/14/05 2 comments
Month Views: 11 | Total Views: 3,005
Sound Byte: Listen
Moderator: urbanriffs | Report This Song?
Song Tools

Comment

Songbook

Kudos

Show Chords

Print

Boxelder finished this when I was more than half done.
Mines a little different so I'm going to go ahead and post it.

No capo on this one, Though the ending is much easier using a capo and playing the way Boxelder has tabbed.

Soundbyte is kinda sketchy, but its good enough.

[] = Harmonic

~ = Vibrato

mooman2679 at gmail.com



e--[7]-x-[7]--------------------------------------
B--[7]-x-[7]----7bh-7r\5-3p2-2br------------------
G--[7]-x-[7]--------x-----------4\2/4-4brbr-------
D-------------------------------------------------
A-------------------------------------------------
E-----------12\-----------------------------------


e--------------------------------------------
B--------------------------------------------
G---------------------------7h9-9br~~-9p7-4br--
D--0h2/4-5-4\2-0-0-2~/4--7h9-----------------
A---------------0----------------------------
E--------------------------------------------

e------0-------------------------------------------
B--8-5------3-3-------------3---3-3-3-3-3------3---
G-----7--2bh---2r-2p0--0--4-2bh-2-2-2-2-2r-2p0-2b--
D--------------------5-7br--------------------2----
A--------------------------------------------------
E--------------------------------------------------

e--------------------------------
B--------------------------------
G--------------------------------
D-----------0--------------------
A--/7br~-7br-2-0-2-0-------------
E-------------------3br/12\------

e------------------------------------------------------12b---
B--5---7---9-----9/10-10-10-10-12-12-12/14/15-14-10-10-------
G--7br-9br-11br-11-11-11-11-11-11-11-11-11-11-11-11-11-------
D------------------------------------------------------------
A------------------------------------------------------------
E------------------------------------------------------------


 Comments (click here to add a non-facebook comment)
THe other one is better but i see what you were trying to do (not use the capo i mean) so good tab!!!
-KU_isbestever | 5/18/2005
yea, stupid me didn't take a look at the chord tab before I started this...I figured sense I was most the way done I might as well just post it. Thanks
-mooman2679 | 5/18/2005
Home | FAQs | Privacy | Terms | Advertise | Contact
Top 100 Tab Sites