Give Kudos?
Are you sure you want to give kudos to axehappy?

Add To Songbook?
Are you sure you want to add this song to your songbook?


2,668 bands | 34,785 songs
Search: Register FREE! | Login
Browse Songs:
Browse Bands:
Tool Panel
Discuss This Song

1 2 3 4 5





Keith Urban - Somebody Like You (Lead)
Album: Golden Road (2002)
Submitter: axehappy (111) on 8/3/02 10 comments
Month Views: 28 | Total Views: 28,449
Moderator: urbanriffs | Report This Song?
Song Tools

Comment

Songbook

Kudos

Show Chords

Print

Keith Urban  -  Somebody Like You (lead)

By axehappy  -  axehappy at countrytabs.com


Play all of this with some slight overdrive.


*******************************************************************************************

x   =   dead note                                     /   =   slide down

b   =   bend                                          bh  =   bend & hold

r   =   release bend                                  p   =   pulloff

h   =   hammer-on                                     \   =   slide down

~   =   vibrato                                       br  =   bend & release

*******************************************************************************************




LEAD SOLO



E--------------------7--7---7-----7---7----------7--7---7-----7---7---
B--------------------7b-7bh-7r-p5-5h7-5----------7b-7bh-7r-p5-5h7-5---
G--------------------------------6---------------------------6--------
D---------------------------------------------------------------------
A---------------------------------------------------------------------
E--x-x-x-x-x-x-12\-0--------------------12/15\-0----------------------


  Let the top E string ring all the way through this.

E---0--0--0----0--0--0---0--0--0-----0--0--0-----0--0--0-----0--0--0---0-0-0---0-0-
B--17-17-16bh-16-16-16r-16-16-16\14-14-14-14\12-12-12-12\10-10-10-10\9-9-9-9\7-7-7-
G----------------------------------------------------------------------------------
D----------------------------------------------------------------------------------
A----------------------------------------------------------------------------------
E----------------------------------------------------------------------------------


E--0---0-0-----------------------------------------------------------------------------
B--7\5-5-5-3/5~~-----------------------------------------------------------------------
G----------2/4~~--------------------------------------------------------2/-x-x----9-9--
D---------------4bh-4r-p2-2h4-2-----------------------------------2/-x-x-------9bh--9r-
A------------------------4-----------4bh-4-4bh-4-4-4r-p2-2--2/-x-x---------------------
E------------------------------2/12\--------------------4------------------------------


E------12-12---------|
B--5/12-----15b~~~---|
G--------------------|
D--------------------|
A--------------------|
E--------------------|




LEAD AT END OF SONG



E-------12-12-----14-14-----16-16-17p16p14--14---------12-12-----14-14-----16-16-
B--10/12-----10/12-----10/12--------------17--17--10/12-----10/12-----10/12------
G--------------------------------------------------------------------------------
D--------------------------------------------------------------------------------
A--------------------------------------------------------------------------------
E--------------------------------------------------------------------------------


E--17p16p14--17b-------12-12-----14-14-----16-16-17p16p14--14---------12-12-----14-14-
B----------17-----10/12-----10/12-----10/12--------------17--17--10/12-----10/12------
G-------------------------------------------------------------------------------------
D-------------------------------------------------------------------------------------
A-------------------------------------------------------------------------------------
E-------------------------------------------------------------------------------------


E-------16-16-17p16p14--14br-12~~~---|
B--10/12--------------17-------------|
G------------------------------------|
D------------------------------------|
A------------------------------------|
E------------------------------------|



 Comments (click here to add a non-facebook comment)
In the menu to the left of your screen,
there's a selection near the top called
'What is a Tab?'.,..have a read through
that...should help you out some... :)
-axehappy | 8/8/2003
Those are slides FROM the second fret :o)
The way I've tabbed it there as 2/-x-x just
means slide up from the second to wherever
you feel comfortable ending the slide, and
then pick two dead notes, so the way you
tabbed there, would just sound kinda the
same except starting the slide a bit higher
up the neck.. ;o)
-axehappy | 8/19/2003

-ArnpriorMike17 | 11/5/2003
axehappy is a great tabber! thanks bro!
-taterpardue | 7/5/2004
you f**king rock
-sureshot | 8/16/2004
can someone tab out the sorta hidden song on this track .. there are just them few licks that i cant figure out
-ronald_911 | 9/16/2004
Nailed another one Axe. Strong Work!!!
-gandolf | 9/18/2004
great tab! great song!

christopher
-WildCard76 | 11/26/2003
Axehappy rocks!!!!!!!!!!
-shreddrb | 5/12/2005
See Somebody like you pt1.MOV ...nice and easy way
-jet7719 | 8/3/2011
Home | FAQs | Privacy | Terms | Advertise | Contact
Top 100 Tab Sites