Give Kudos?
Are you sure you want to give kudos to joesklad?

Add To Songbook?
Are you sure you want to add this song to your songbook?


2,641 bands | 34,568 songs
Search: Register FREE! | Login
Browse Songs:
Browse Bands:
Tool Panel
Discuss This Song

1 2 3 4 5





Keith Urban - Sweet Thing (intro) (Intro)
Album: Defying Gravity (2009)
Submitter: joesklad (1) on 2/28/09
Month Views: 7 | Total Views: 6,490
Moderator: urbanriffs | Report This Song?
Song Tools

Comment

Songbook

Kudos

Show Chords

Print

Keith Urban - Sweet Thing (intro)

      
e-6~~------6-6---------6-6-----6-6---------6-6------6-6--------6-6-
B-6~~-------6-----------6-------6-----------6--------6----------6--
G-------1/8----7h8-7h8-----7h8-----7h8-7h8------7h8-----7h8-7h8----
Dó-----------------------------------------------------------------
A------------------------------------------------------------------
E------------------------------------------------------------------

e-----6-6---------6-6------8p6-6--8p6-6-----8p6-6--8p6--6--
B------6-----------6-------6---6--6---6-----6---6--6----6--
G-7h8-----7h8-7h8------------------------------------------
D----------------------------------------------------------
A----------------------------------------------------------
E----------------------------------------------------------
 Comments (click here to add a non-facebook comment)
Home | FAQs | Privacy | Terms | Advertise | Contact
Top 100 Tab Sites