Give Kudos?
Are you sure you want to give kudos to sweethomealabam?

Add To Songbook?
Are you sure you want to add this song to your songbook?


2,750 bands | 35,302 songs
Search: Register FREE! | Login
Browse Songs:
Browse Bands:
Tool Panel
Discuss This Song

1 2 3 4 5



Keith Urban - Who Wouldn't Wanna Be Me(live) (Intro)
Album: Golden Road (2002)
Submitter: sweethomealabam (0) on 12/29/05 4 comments
Month Views: 1 | Total Views: 3,942
Moderator: urbanriffs | Report This Song?
Song Tools

Comment

Songbook

Kudos

Show Chords

Print

This is the live intro from Daytona Beach

Enjoy!

============================================================
/=slide up                          p=pull-off
!=harmonics                         bnb=behind nut bend
\=slide down                        b=bend
bh=bend and hold                    x=dead note
~=vibrato
============================================================

Guitarfan12 at aol.com

tune down to D
E----------------------------------------------------8-----7
B-------------------------------------------------8bh-8r-6-8
G---------------------------------------------------------7-
D----5!-0bnb--3p2p0-------3p2p0-------3p2p0-----------------
A------------------0-3-3/5-----0-3/5-3-----0-3-3/5----------
E-0\D------------------------------------------------

E-5------------------------------x-10-x-10-x-10-x-10-x-10-x-
B-6b-----------------------------x-10-x-10-x-10-x-10-x-10-x-
G--------------------------------x-10-x-10-x-10-x-10-x-10-x-
D-------3p2p0-------3p2p0--------x-10-x-10-x-10-x-10-x-10-x-
A------------0-3-3/5-----0-3/5-3/---------------------------
E----12\----------------------------------------------------

E-10-x-10-10-10----------------------------
B-10-x-10-10-10----------------------------
G-10-x-10-10-10-----2-----0----------------
D-10-x-10-10-10-----0-----5-4-3-0-------12\
A-------------------0-----------5----------
E--------------12\--0--12\-------3b-3b-0---

(use a wah-wah pedal for this next part)

E------------------------
B---10-12-12b~~~~~~~~~~~\
G-11---------------------
D------------------------
A------------------------
E------------------------

PLEASE COMMENT AND RATE
 Comments (click here to add a non-facebook comment)
Chris Ledoux provided a lot of inspiration for Garth Brooks and I am happy to see a song such as this one. Chris Ledoux will probably always be my favorite.
-fenderhombre | 11/2/2005
the harmonics sounds better on the d string (altho its the same as the E tuned to D)
5th fret still...give it a try
-Derek_Cave99 | 12/29/2005
what is up with the O/D and the !?
-dnrg_33 | 1/8/2006
SORRY MAN....IM STILL KINDA...... NEW AT THIS...WHATS THE HECK DOES THIS MEAN bnb=behind nut bend......?
-KEITHURBAN79 | 2/7/2006
Home | FAQs | Privacy | Terms | Advertise | Contact
Top 100 Tab Sites