Give Kudos?
Are you sure you want to give kudos to axehappy?

Add To Songbook?
Are you sure you want to add this song to your songbook?


2,658 bands | 34,688 songs
Search: Register FREE! | Login
Browse Songs:
Browse Bands:
Tool Panel
Discuss This Song

1 2 3 4 5





Keith Urban - Who Wouldn't Wanna Be Me (Solo)
Album: Golden Road (2002)
Submitter: axehappy (105) on 4/12/03 7 comments
Month Views: 28 | Total Views: 14,863
Moderator: urbanriffs | Report This Song?
Song Tools

Comment

Songbook

Kudos

Show Chords

Print

Keith Urban  -  Who Wouldn't Wanna Be Me  (solo)

By axehappy  -  axehappy at countrytabs.com


***********************************************************************

b   =   bend                               bh   =   bend & hold

r   =   release bend                       p    =   pulloff

br  =   bend & release                     ~    =   hold note

h   =   hammer-on                          pbh  =   pre-bend & hold

/   =   slide up                           \    =   slide down

***********************************************************************



E----5--5--5--5----------------------------------------------
B--5b-5b-5b-5b-5b-5b-5b-5bh-5-5-5-5r-3-5b-5------------------
G-------------------------------------4-----4p2p0------------
D------------------------------------------------4p2p0-------
A------------------------------------------------------------
D-----------------------------------------------------3br~~--


E----------------------------------3---5----15-17b-17~\--
B-----------3--------2--------3-1/3-5/7-7/17-------------
G-------2pbh-2r-0-2bh-2r-0-2/4---------------------------
D-----0--------------------------------------------------
A--0h2---------------------------------------------------
D--------------------------------------------------------


E--7/10p9p8p7\5-3-------------------|
B--------------3-6b-3---------------|
G--------------------5-2------------|
D-----------------------5-3---------|
A--------------------------5-3-0----|
D-------------------------------0---|
 Comments (click here to add a non-facebook comment)
great job,sounds100%correct to me

-fohn | 4/28/2003
where is this in relation to the lyrics
-guitar87 | 9/20/2003
After the second chorus. He breaks out of that chorus with the bends.

Also, could you throw in the lick he plays half way through the second chorus, please?
-SharkESP | 9/29/2003
looks good
-singingstud54 | 9/30/2003
The end of the solo should be played in the
same position. Not sliding....
-stevie_ray | 2/20/2004
If He TABs like me it might be y you can't here it I usally turn off one or vise versa speaker and you'll hear other things like on Garth Brooks The Thunder Rolls theres 2 guitars playin in the beginin
-jdgreen06 | 12/13/2004
The whole entire tab is at ultimate-guitar.com.
-onibuvyc | 1/19/2009
Home | FAQs | Privacy | Terms | Advertise | Contact
Top 100 Tab Sites