Give Kudos?
Are you sure you want to give kudos to marshallhouston?

Add To Songbook?
Are you sure you want to add this song to your songbook?


2,668 bands | 34,785 songs
Search: Register FREE! | Login
Browse Songs:
Browse Bands:
Tool Panel
Discuss This Song

1 2 3 4 5





Keith Urban - You Look Good In My Shirt (live Intro) (Intro)
Album: Golden Road (2002)
Submitter: marshallhouston (0) on 4/27/06
Month Views: 30 | Total Views: 7,858
Moderator: urbanriffs | Report This Song?
Song Tools

Comment

Songbook

Kudos

Show Chords

Print

                                                                    keep sliding up fretboard

e---------------------------------------------------------------------------------------------|
B--3p1-1--3p1-1--3p1-1-3b----3p1-1--3p1-1--3p1-1----3p1-1--3p1-1--3p1-1-3b~~~~~~~~~~~~~~~12b\-|
G-----2------2------2-----------2------2------2-2b-----2------2------2------------------------|
D---------------------------------------------------------------------------------------------|
A---------------------------------------------------------------------------------------------|
E---------------------------------------------------------------------------------------------|
 
e------------------------------------------------------------------------------3/5-5---|
B----0-3---3--3-3--3---3--3/----12------0-3---3--3-3--3---3--3-----0-3---3-3---3/5-5---|
G-0--0-2bh-2r-0-2b-2bh-2r-0-----12---0--0-2bh-2r-0-2b-2bh-2r-0--0--0-2br-0-2b----------|
D-0h2---------------------------12---0h2------------------------0h2--------------------|
A---------------------------------14\--------------------------------------------------|
E--------------------------------------------------------------------------------------|
 
e-------------------------------------------------------x-x-x-x-x----x-x-x-x-x----x-x-x-x-x---|
B-----0-3---3--3-3--3---3--3-----0-3---3---3---3--------x-x-x-x-x----x-x-x-x-x----x-x-x-x-x---|
G--0--0-2bh-2r-0-2b-2bh-2r-0--0--0-2br-0---4---4----5b-5x-x-x-x-x----x-x-x-x-x7b-7x-x-x-x-x---|
D--0h2------------------------0h2-------3/5-5-5-----5b-5x-x-x-x-x5b-5x-x-x-x-x7b-7x-x-x-x-x5--|
A---------------------------------------------------3b-3x-x-x-x-x5b-5x-x-x-x-x5b-5x-x-x-x-x5--|
E-------------------------------------------------------x-x-x-x-x3b-3x-x-x-x-x----x-x-x-x-x3--|

e---12-0-11-0-9-------x-x-x-x-x----x-x-x-x-x------x---------|
B---------------------x-x-x-x-x----x-x-x-x-x------x---------|
G-----------------5b-5x-x-x-x-x----x-x-x-x-x-7-77-x-555-----|
D-----------------5b-5x-x-x-x-x5b-5x-x-x-x-x-7-77-x-555-5---|
A-----------------3b-3x-x-x-x-x5b-5x-x-x-x-x-5-55-x-333-5---|
E---------------------x-x-x-x-x3b-3x-x-x-x-x------x-----3---|
 Comments (click here to add a non-facebook comment)
Home | FAQs | Privacy | Terms | Advertise | Contact
Top 100 Tab Sites