Give Kudos?
Are you sure you want to give kudos to sweethomealabam?

Add To Songbook?
Are you sure you want to add this song to your songbook?


2,726 bands | 35,161 songs
Search: Register FREE! | Login
Browse Songs:
Browse Bands:
Tool Panel
Discuss This Song

1 2 3 4 5



Keith Urban - You Won(solo) (Solo)
Album: Golden Road (2002)
Submitter: sweethomealabam (3) on 12/14/05 1 comment
Month Views: 9 | Total Views: 2,910
Moderator: urbanriffs | Report This Song?
Song Tools

Comment

Songbook

Kudos

Show Chords

Print

This is one of my favorite songs on his
"Golden Road." and the solo in this one
is just awesome.
On the first bend
bend it 1 1/2 steps.

============================================================
b=bend
/=slide
p=pull-off
h=hammer-on
~=vibrato
x=mute
pbr=pre-bend & release
============================================================


Guitarfan12 at aol.com


E-----------------------------------------------------------
B-15b-15pbr-15-13-13-13-12-12-12----------12----------------
G--------------------------------14-12-14/------------------
D-------------------------------------------x-12-12---------
A-----------------------------------------------------------
E-----------------------------------------------------------

E--------------------------------------------13-15-15b-15r~~
B---------------------------------------13-15---------------
G------------12-----------12-------12-14--------------------
D-----------------------------14-15-------------------------
A-15p14h15p14--15p14h15p14----------------------------------
E-----------------------------------------------------------

E-15~~--15p13p12--------------------------------------
B---------------15p13p12h13---------------------------
G--------------------------14p12----------------------
D-------------------------------14h15p14p12-----------
A------------------------------------------14-12-10/12
E-----------------------------------------------------

PLEASE COMMENT AND RATE
 Comments (click here to add a non-facebook comment)
the hammer-on pull-offs part where you have it tabbed on the 15th and 14th frets on the A string, he plays it on the 5th and 4th frets on the G string. its the same notes and everything, he just plays it lower on the neck. sounds great though! good job!
-guitargurl35 | 1/27/2006
Home | FAQs | Privacy | Terms | Advertise | Contact
Top 100 Tab Sites