Give Kudos?
Are you sure you want to give kudos to KU_isbestever?

Add To Songbook?
Are you sure you want to add this song to your songbook?


2,726 bands | 35,161 songs
Search: Register FREE! | Login
Browse Songs:
Browse Bands:
Tool Panel
Discuss This Song

1 2 3 4 5



Keith Urban - You Won (livin' Right Now) (Intro)
Album: Golden Road (2002)
Submitter: KU_isbestever (1) on 11/1/05 4 comments
Month Views: 6 | Total Views: 3,828
Moderator: urbanriffs | Report This Song?
Song Tools

Comment

Songbook

Kudos

Show Chords

Print

This is from the new DVD that was released.  It should be right on!!!


Your pretty much doing all of the pulloffs on the G string 
while continuosly hitting the base note on the D string

                        (F)
E------------------------------------------------------
B------------------------------------------------------
G-------5p0-4p0-5-4p0--------5p0-4p0-5-4p0-------------
D--2/3-3---3---3-3------2/3-3---3---3-3----------------
A------------------------------------------------------
E------------------------------------------------------

                         (G) 
E-------------------------------------------------------
B-------------------------------------------------------
G---------4p0-7-6-4p0-----------4p0-7-6-4p0-------------
D---3/5-5----5-5-5--------3/5-5----5-5-5----------------
A-------------------------------------------------------
E-------------------------------------------------------


                          (F)
E------------------------------------------------------
B------------------------------------------------------
G-------5p0-4p0-5-4p0--------5p0-4p0-5-4p0-------------
D--2/3-3---3---3-3------2/3-3---3---3-3----------------
A------------------------------------------------------
E------------------------------------------------------

                           (G)

E----------------------------------------------------
B----------------------------------------------------
G--4p0-0-5p0-0-7p0-0-9p0-0-12p0-0-14bh-14------------
D----------------------------------------------------
A----------------------------------------------------
E----------------------------------------------------




Comments/Corrections greatly apprecianted!

 Comments (click here to add a non-facebook comment)
great job!! could you tab out the rest of this tab?
-davguitarplayer | 11/2/2005
There shouldn't be much more to tab out from the intro. If you mean the rest of the song... I might later but not now. This is repeated through the whole first verse just not as many pulloffs.
-KU_isbestever | 11/2/2005
just about perfect tabbing right there. great job
-ashley25pru | 12/27/2005
right on my man. great work
-romans12:21 | 7/31/2008
Home | FAQs | Privacy | Terms | Advertise | Contact
Top 100 Tab Sites