Give Kudos?
Are you sure you want to give kudos to guitarlover98?

Add To Songbook?
Are you sure you want to add this song to your songbook?


2,726 bands | 35,161 songs
Search: Register FREE! | Login
Browse Songs:
Browse Bands:
Tool Panel
Discuss This Song

1 2 3 4 5



Keith Urban - You Won (Solo)
Album: Golden Road (2002)
Submitter: guitarlover98 (0) on 3/1/05
Month Views: 11 | Total Views: 3,363
Moderator: urbanriffs | Report This Song?
Song Tools

Comment

Songbook

Kudos

Show Chords

Print

|--10b(11)--10-10--10-8-8--8-7-7--7------7h8----------------|
|--------------------------------------------10----------------------|
|--------------------------------------------------------7--7--------|
|---------------------------------------------------------------------|
|---------------------------------------------------------------------|
|---------------------------------------------------------------------|

|--------------------------------------------------------------------|
|--------------------------------------------------------------------|
|---------------------------12----------------------10/12---------|
|--12--12p10h12p10--------12p10h12p10------------------|
|--------------------------------------------------------------------|
|--------------------------------------------------------------------|

|------------------------10--12--15--16b(17)--16--16--------|
|----------8--10--12---------------------------------------------|
|--9--10----------------------------------------------------------|
|-------------------------------------------------------------------|
|-------------------------------------------------------------------|
|-------------------------------------------------------------------|

|----------------------------------------------------------------------------------|
|--16b(17)--16p14--------14-------------------------------------------------|
|-------------------------15-----15p13------13-----13------------------------|
|-------------------------------------------15-----15-----15p13-------13--15-|
|---------------------------------------------------------------------15-----------|
|-----------------------------------------------------------------------------------|
 Comments (click here to add a non-facebook comment)
Home | FAQs | Privacy | Terms | Advertise | Contact
Top 100 Tab Sites