Give Kudos?
Are you sure you want to give kudos to tayball89?

Add To Songbook?
Are you sure you want to add this song to your songbook?


2,733 bands | 35,224 songs
Search: Register FREE! | Login
Browse Songs:
Browse Bands:
Tool Panel
Discuss This Song

1 2 3 4 5



Keith Urban - You'll Think Of Me (live Intro Corrected) (Chord)
Album: Golden Road (2002)
Submitter: tayball89 (0) on 4/18/05 12 comments
Month Views: 8 | Total Views: 10,628
Moderator: urbanriffs | Report This Song?
Song Tools

Comment

Songbook

Kudos

Show Chords

Print

This is very similiar to twest1219's version of this, but I made a few corrections 
with what I hear in the intro... as well as added a sound byte



e-----------0-----------------0--------------------0---------------------------------
B-----3------3---3--------0----0--3----------3------3---3-------/5-/7-/8-/10-/12-\5--
G----0--0-----0---0------0-0----0--0--------0--0-----0---0---------------------------
D---4----4-----4---4----2---2-------2------4----4-----4---4--------------------------
A-2--------------------3-----------------2-------------------(3)---------------------
E--0--------------------------------------0------------------------------------------

e----------0---------------------------------------------------0----------0------
B-------3-----3----------------------------------------------3----3---------0----
G------0--0----0---0-----4-2-0-----0--------0-----(4p2p0)---0-0----0---0----0----
D-----4----4------4--0---------2h4------2h4----------------4---4------4-----2----
E-2------------2-----3------------(3)------(3)---------2-----------2------3------
E---0----------------------------------------------------0-----------------------

After this you start into the regular intro (which i have done in the sound byte)... 
there are several versions for that already tabbed 
 Comments (click here to add a non-facebook comment)
wow.thats right on..man ur good
-paramedic79ca | 4/18/2005
When you start sliding up you should hit the high e string while doing it and it sounded weird on the soundbyte but u have the right notes so i dunno.

The normal intro was off but thats not your work so good job.
-KU_isbestever | 4/18/2005
ya the normal intro wasn't supposed to be 100% like keith plays it, i like my rendition... just added it in to show how the whole thing should sound together as a whole
-tayball89 | 4/18/2005
I like the intro you have.
Can you tab it also?
-kenchristner | 4/19/2005
i guess i could tab it and send it to you... i'm not gonna post it because there are already several versions up on the site and mine isn't exactly how keith plays it, but i could email it to you when i get it tabbed
-tayball89 | 4/19/2005
Ok,
refkenc@yahoo.com
I think your's works best.
-kenchristner | 4/19/2005
That sounds great. Really nice job on this and great soundbyte.
-mystikal1116 | 4/21/2005
perfect
-urban109 | 6/15/2005
i figured out how to play this myself but never bothered tabbing it ...looks close to what i play...nice job

-Derek_Cave99 | 6/17/2005
Awsum tab! NOthing to be changed i think it is wickid, only thing missing is the other intro to the song which is awsume. Cud ya send it to me?

thanks :)
-TimMiles | 9/15/2005
really good man. I've seen keith 3 times (4th time will be next week) and everytime he plays this he does the intro a little bit different and I've never quite been able to get it down until now. great job
-chrisclemens | 11/14/2005
dude u gotta tab out the intro you did...it sounded way better than all the other versions out there!
-puto | 2/9/2006
Home | FAQs | Privacy | Terms | Advertise | Contact
Top 100 Tab Sites