Give Kudos?
Are you sure you want to give kudos to ragincajun013?

Add To Songbook?
Are you sure you want to add this song to your songbook?


2,659 bands | 34,708 songs
Search: Register FREE! | Login
Browse Songs:
Browse Bands:
Tool Panel
Discuss This Song

1 2 3 4 5





Keith Urban - You're My Better Half (Solo)
Album: Be Here (2004)
Submitter: ragincajun013 (0) on 11/21/04 12 comments
Month Views: 19 | Total Views: 7,898
Moderator: urbanriffs | Report This Song?
Song Tools

Comment

Songbook

Kudos

Show Chords

Print

Keith Urban
You're My Better Half Solo
Be Here
Tabbed By: RaginCajun013


My favorite solo from "Be Here".  Its really melodic, so just get the feel for 
the song, and the pull-offs, and its not too hard.   This is my first tab ever 
so it might not be absolutely perfect, but it sounds great to me.  Any feedback 
would be appreciated.  Enjoy!



e--------------0---------------0------------------0----------------0----------------------
B----9p0------------------------------9p0-------------------------------------------------
G--------------------8h9--------------------------------8h9----------------6h8-----7--7---
D-----------------------------------------------------------------------------------------
A-----------------------------------------------------------------------------------------
E-----------------------------------------------------------------------------------------




e-----------------------------------------------------------0----0----0------7p0---5p0----
B--------------------7p0---7p0------------------------------------------------------------
G------6h8-----7-------------------------8h9--------8h9-----------------------------------
D-----------------------------------------------------------------------------------------
A-----------------------------------------------------------------------------------------
E-----------------------------------------------------------------------------------------



e----12p0---0----11p0--0---9p0--0---7p0--0-------------------7-7----7h9--7--7-------------
B-------------------------------------------------------7s9-------------------------------
G-----------------------------------------------------------------------------------------
D-----------------------------------------------------------------------------------------
A-----------------------------------------------------------------------------------------
E-----------------------------------------------------------------------------------------


e-----------------7--7---7h9--7--7----------7s12----12---12----12h14p12--12---------------
B-----7s9---------------------------------------------------------------------------------
G-----------------------------------------------------------------------------------------
D-----------------------------------------------------------------------------------------
A-----------------------------------------------------------------------------------------
E-----------------------------------------------------------------------------------------


e--16--------16---------16------------16-----------------16----19p16--------16----19b21---
B-----19b21-----19b21---------19b21-----------19b21----------------19---------------------
G-----------------------------------------------------------------------------------------
D-----------------------------------------------------------------------------------------
A-----------------------------------------------------------------------------------------
E-----------------------------------------------------------------------------------------


 Comments (click here to add a non-facebook comment)
There were some format mistakes earlier, but i fixed em, so this should be right.
-ragincajun013 | 11/21/2004


-ragincajun013 | 11/21/2004
PM me if you want me to delete it so you can fix the mistakes and resubmit.
-lmofle | 11/21/2004
It's the solo....starts at 2:28 in the song.
-ragincajun013 | 11/24/2004
I saw Keith play on his tour and i think he played the first part down on the neck and the second part higher on the neck. I' m sure he was doing the second part higher actually but notthe first part.
I think it's also easier to play it that way.
Thanks for tabbing this out though. I couldn't ever figure it out.
Good Job.


-KU_isbestever | 11/26/2004
Go watch the new video for this on CMT.com to see how keith really plays it and you'll see what i'm talkin about.
-KU_isbestever | 12/10/2004
Yep, your right......Same notes as my tab, different position....It's much easier the way he plays it...I'll tab the "correct" version out soon.
-ragincajun013 | 12/12/2004
Yep, your right....same notes as my tab, different position....it it much easier the way he plays it....I will tab out the "correct" version Soon.
-ragincajun013 | 12/12/2004
After playing this through over and over again for weeks im not so sure about the 6h8-7-7-6h8-7. It should have another 8 in there before that.
And by the way to see what i meant for when i said how keith plays it watch his video at cmt.com or aolmusic.com
-KU_isbestever | 12/13/2004
Thanks alot man this is and awsome song as well as you tab thanks again

-BearTabs | 12/20/2004
I WATHCHED KEITH URBAN LAY THIS REALLY CLOSELY HE STARTS OUT ON THE D SECOND STRING THIRD FRET
-dodo728 | 1/2/2005
Keith does'nt play it this way but it's good.

-Derek_Cave99 | 1/21/2005
Home | FAQs | Privacy | Terms | Advertise | Contact
Top 100 Tab Sites