Give Kudos?
Are you sure you want to give kudos to Derek_Cave99?

Add To Songbook?
Are you sure you want to add this song to your songbook?


2,728 bands | 35,169 songs
Search: Register FREE! | Login
Browse Songs:
Browse Bands:
Tool Panel
Discuss This Song

1 2 3 4 5



Keith Urban - You're Not Alone Tonight (live Acoustic) (Intro)
Album: Golden Road (2002)
Submitter: Derek_Cave99 (0) on 6/21/05 8 comments
Month Views: 18 | Total Views: 6,655
Moderator: urbanriffs | Report This Song?
Song Tools

Comment

Songbook

Kudos

Show Chords

Print

You’re Not Alone Tonight
CAPO 1
This is the acoustic intro that I like to play. …It is very close to the way Keith 
Plays it but if you learn this you will get the idea..(because it is so close)
Legend:
P  = pulloff
H  = Hammer on
(^) = Upstroke

Live intro
e--------------------------0-----0----0---0---0---0-------------------|
B------------------------3-----3----3---3---3---3---------------------|
G----------------------0------0---0---0---0---0-----------------------|
D--------0---0h2----2------2---2---2---2---2------4h2--0--------------|
A---0h2----0-----------------------------------------------2--0-------|
E---------------------------------------------------------------------|

e--------3p0-------0h2-------------------------0-----0---0---0---0---0---|
B------2-----0---2---------------------------3-----3---3---3---3---3-----|
G-----3---------3---------------------------0-----0---0---0---0---0------|
D----0----------------------------2p4\2--2-----2---2---2---2---2---------|
A---------------------------0h2------------------------------------------|
E------------------------------------------------------------------------|
                                 (  ^  )
e------------------------------3----0------0h2-------|
B----------------------------2----2------2-----------|
G-------2------------------3----3------3-------------|
D----4----2---0-0-------0---------0------------------|
A----------------------------------------------------|
E----------------------------------------------------|

After this use any chords for this song that are CAPO 1
This also repeats after the first verse and as the outro
 Comments (click here to add a non-facebook comment)
i think its decent just really hard to space chords :/
oh well listen to the live version or the album version and you should figure it out
-Derek_Cave99 | 6/21/2005
Ur soundbyte isn't working for me.
-KU_isbestever | 7/9/2005
never mind it..its just the song done live by keith LOL!
-Derek_Cave99 | 7/10/2005
You should post a soundbyte of you doing it...sense that's what a soundbyte is for.
-mooman2679 | 7/10/2005
i no
-Derek_Cave99 | 7/10/2005
How do you do a 4h2 and a 2p4? Or should it be 4p2 and 2h4? I think there is a typo in the tab...

Thanks
-mikespe | 10/30/2005
yah a typo... sorry guy
-Derek_Cave99 | 10/30/2005
thanks buddy
-Derek_Cave99 | 11/29/2005
Home | FAQs | Privacy | Terms | Advertise | Contact
Top 100 Tab Sites