Give Kudos?
Are you sure you want to give kudos to axehappy?

Add To Songbook?
Are you sure you want to add this song to your songbook?


2,641 bands | 34,564 songs
Search: Register FREE! | Login
Browse Songs:
Browse Bands:
Tool Panel
Discuss This Song

1 2 3 4 5





Keith Urban - You're Not Alone Tonight (Lead)
Album: Golden Road (2002)
Submitter: axehappy (112) on 2/16/03 6 comments
Month Views: 15 | Total Views: 4,899
Moderator: urbanriffs | Report This Song?
Song Tools

Comment

Songbook

Kudos

Show Chords

Print

Keith Urban  -  You're Not Alone Tonight  (lead)

By axehappy  -  axehappy at countrytabs.com


Parts of this sound as though they're being played using a slide,
but I've tried to tab without one as much as possible.


*************************************************************************

h   =   hammer-on                              /   =   slide up

\   =   slide down                             p   =   pulloff

br  =   bend & release                         bh  =   bend & hold

r   =   release bend                           ~   =   vibrato

x   =   dead note

*************************************************************************


INTRO


E--------------------------------------------------|
B--------------------------------------------------|
G-------1-------------------------------3----------|
D-----1-1h3--3/5\3-1--------1-3/5-3--3/5-5\3-1-1---|
A--1h3-3------------3-1--1h3-----------------------|
E--------------------------------------------------|


END OF FIRST CHORUS


E----------------------------------------------|
B--6/8p6----------13br-11-13------11-----------|
G-------8---------------------10bh--10r-8~~\---|
D--------8-6-----------------------------------|
A-----------8/10-------------------------------|
E----------------------------------------------|



DURING SECOND VERSE


  nothing goes as planned...
E---------------------------11/13\11---------------------|
B---------------------------11/13\11-11/13\11-x-11p8-8---|
G------------------------------------10/12\10-x-10p8-8---|
D----------------------------------------------------8---|
A--------------------------------------------------------|
E--------------------------------------------------------|

  seems to understand...
E-----------------------------------------------|
B---------------------------8-------------------|
G-----------------------10bh-10r-8-10/12-8--8---|
D-----------------------------------------10----|
A-----------------------------------------------|
E-----------------------------------------------|

  you'd give anything...
E--------------------------------------------------------|
B----------------------------11-11-13--------------------|
G-----------------------10/12--------12\10-8-10b-8-8-----|
D---------------------------------------------------10---|
A--------------------------------------------------------|
E--------------------------------------------------------|

  someone's listening...
E-----------------------10h13--10------------------------------------|
B----------------------------13--11h13--11---------------------------|
G-------------------------------------12--10h12--10------------------|
D----------------------------------------------13--10h12----8-8/10---|
A-------------------------------------------------------8/10---------|
E--------------------------------------------------------------------|



LEAD SOLO (w/slide)


E-----------------------------------------------------------|
B--11/13---11\8--11/18~~/20\16--18/20\18-18\16-16\15--------|
G---------------------------------------------------15/17---|
D-----------------------------------------------------------|
A-----------------------------------------------------------|
E-----------------------------------------------------------|



END OF SONG


E-----------------------------------------------------------------|
B--13br-11-13-------11-11-----------------13br-11-13------11-11---|
G--------------10/12-----12\10-8-10/12-8-------------10/12--------|
D-----------------------------------------------------------------|
A-----------------------------------------------------------------|
E-----------------------------------------------------------------|

 Comments (click here to add a non-facebook comment)
I am a new member to this site.
I would like to comment to axehappy.
In a world filled with CHORDLATURE sites
that say they are tab, kudos to you
your work makes playing the guitar fun
...again. I seen Keith live in Alberta
it was awesome his playing on the album
does not do him justice. His live performance ROCKED!!!!
-timberKona | 9/10/2004
Good tune eh. Sorry I really am canadian. Good job AXE!!!

-Derek_Cave99 | 4/5/2005
WOW Now that i try it its great!!!

-Derek_Cave99 | 4/5/2005
to make ur tabs more affective add the time of the phrase.
-Derek_Cave99 | 4/5/2005
sorry to bug u sooooo much but at the END OF THE SONG riff does the intro play in behind it??
-Derek_Cave99 | 4/5/2005
If I remember right.. yes it does..
-axehappy | 4/6/2005
Home | FAQs | Privacy | Terms | Advertise | Contact
Top 100 Tab Sites