Give Kudos?
Are you sure you want to give kudos to zunie?

Add To Songbook?
Are you sure you want to add this song to your songbook?


3,302 bands | 38,082 songs
Search: Register FREE! | Login
Browse Songs:
Browse Bands:
Tool Panel
Discuss This Song

1 2 3 4 5



Kenny Chesney - Don't Blink (Solo)
Album: Just Who I Am, Poets & Pirates (2007)
Submitter: zunie (2) on 9/29/07
Month Views: 698 | Total Views: 7,157
Sound Byte: Listen
Moderator: Ray Terry | Report This Song?
Song Tools

Comment

Songbook

Kudos

Show Chords

Print

                             Don't Blink
                             Kenny Chesney
Tabbed by Zunie 9-29-2007


E---------------------------------14b(16)-14br-12-11-12-14---------------------
B------12~~~-------10-9------------------------------------12~~slide down------
G-11/13-----11b(13)-----9------------------------------------------------------
D-------------------------9/11\9-----------------------------------------------
A------------------------------------------------------------------------------
E------------------------------------------------------------------------------

E----------9-------------------------------------------------------------------
B-12b(14)~~--12-9---------9----------------------------------------------------
G-----------------11b(13)---12p11p9-11~~---------------------------------------
D------------------------------------------------------------------------------
A------------------------------------------------------------------------------
E------------------------------------------------------------------------------
 Comments (click here to add a non-facebook comment)
Home | FAQs | Privacy | Terms | Advertise | Contact
Top 100 Tab Sites