Give Kudos?
Are you sure you want to give kudos to axehappy?

Add To Songbook?
Are you sure you want to add this song to your songbook?


2,722 bands | 35,151 songs
Search: Register FREE! | Login
Browse Songs:
Browse Bands:
Tool Panel
Discuss This Song

1 2 3 4 5



Kenny Chesney - Just Don't Happen Twice (Solo)
Album: Greatest Hits (2000)
Submitter: axehappy (34) on 5/9/02 4 comments
Month Views: 4 | Total Views: 11,448
Moderator: Ray Terry | Report This Song?
Song Tools

Comment

Songbook

Kudos

Show Chords

Print

Kenny Chesney - Just Don't Happen Twice (solo)

By axehappy - axehappy at countrytabs.com


***********************************************************************

\   =   slide down                        /   =   slide up

h   =   hammer-on

***********************************************************************



E-10-10-10-10-10--10-10-10-10-10--10-10-10-10-10-10-10-10-10-10-10-10\-
B-8--8--8--8--8---8--8--10-10-10--10-10-10-8--8--8--8--10-10-8--8--8-\-
G----------------------------------------------------------------------
D----------------------------------------------------------------------
A----------------------------------------------------------------------
E----------------------------------------------------------------------


E---------------------------------------------------|
B---------------------------------------------------|
G--0---0-0-0-0--0-0-0---0-0-0-0-0-0-----------------|
D--4/5-5-5-5-5--5-5-5\4-4-4-4-4-4-0-0h2-2-0---------|
A------------------------------------------3-2-0----|
E-----------------------------------------------3---|

 Comments (click here to add a non-facebook comment)
At the end there is more notes then what you have. On the part with the 4/5 I'm not hearing the open G. Only problems I see.
-yinielin | 12/27/2002
Reguardless of what sounds better, this tab
is exact with the album.
-cmtboy | 2/16/2003
Ok calm down.
-yinielin | 6/23/2003
i use a Boss distortion, i just have the tone set @ 7 oclock and distortion set @ 9 Oclock positions
-eastolympian | 11/1/2003
Home | FAQs | Privacy | Terms | Advertise | Contact
Top 100 Tab Sites