Give Kudos?
Are you sure you want to give kudos to geetar81?

Add To Songbook?
Are you sure you want to add this song to your songbook?


2,831 bands | 36,009 songs
Search: Register FREE! | Login
Browse Songs:
Browse Bands:
Tool Panel
Discuss This Song

1 2 3 4 5



Kenny Chesney - Tush (Intro)
Album: Kenny Chesney - Unknown Album (2008)
Submitter: geetar81 (3) on 8/18/02
Month Views: 7 | Total Views: 3,891
Moderator: Ray Terry | Report This Song?
Song Tools

Comment

Songbook

Kudos

Show Chords

Print

E---5----5--3----5---5---3--|  2x   |---------|  
B---5----5--3----5---5---3--|       |-2b~-0---|
G---------------------------|       |-------2-|
D---------------------------|       |---------|
A---------------------------|       |---------|
E-0----0-------0---0--------|       |---------|

E---5----5--3----5---5---3--|   
B---5----5--3----5---5---3--|      
G---------------------------|     
D---------------------------|       
A---------------------------|   
E-0----0-------0---0--------|      
 Comments (click here to add a non-facebook comment)
Home | FAQs | Privacy | Terms | Advertise | Contact
Top 100 Tab Sites