Give Kudos?
Are you sure you want to give kudos to taylor7458?

Add To Songbook?
Are you sure you want to add this song to your songbook?


2,722 bands | 35,151 songs
Search: Register FREE! | Login
Browse Songs:
Browse Bands:
Tool Panel
Discuss This Song

1 2 3 4 5



Kevin Fowler - Long Line Of Losers (Lead)
Submitter: taylor7458 (1) on 6/17/10
Month Views: 6 | Total Views: 4,376
Moderator: tycobb00 | Report This Song?
Song Tools

Comment

Songbook

Kudos

Show Chords

Print

Long line of losers Solo first one I will add the second one later. 
This is not perfect but this is how we play it live
tabbed by Jackson
Fiddle intro for guitar
----------------------1-5-1-------------------------
---------------1--1-3-------3-1---1-1-3-1---1-2-----
--------2--3-2----------------------------3-----2-2-
----0-3---------------------------------------------
--3-------------------------------------------------
----------------------------------------------------

----------------------------------------------------
----------------------------------------------------
--2h5p2---------------------------------------------
--------2-0--2--0-----------------------------------
------------------3-3-3-3h5p3--1--3-3-3-3h5p3-1-3---
----------------------------------------------------


 Riff 1             Riff 2
-8----------------|------------|--------------------
---8b----8r-----6-|------------|--------------------
-----full--slow---|----------3-|--------------------
------------------|----------3-|--------------------
------------------|--------3-1-|--------------------
------------------|--1-3h5-----|--------------------

First Solo
Do with bends and as many times as needed
-13-13-13-13-13-13---13\10-10\8--8\-6-6\5-5---------
 13-13-11-13-11-13---11\11-11\10-10\8-8\6-6---------
----------------------------------------------------
----------------------------------------------------
--------------------------------------------6h8--8--
----------------------------------------------------


---------------------------------------------12br---
---------------------------------------13h16--------
------------------5----5---------13h15--------------
--------------5-7---7------13h15--------------------
-5p3---35h7----------------------------------------
-----5----------------------------------------------


----------------------------------------------------
-16-13-16-16------13--------18-1613p11----13-------
--------------12bh---12r----------------13----15br--
----------------------15----------------------------
----------------------------------------------------
----------------------------------------------------
                              End Solo
-----------------------------|----------------------
-----------------------------|----------------------
13----------------15b-13-----|----------------------
---15---15-13------------15--|----------------------
--------------15-------------|----------------------
-----------------------------|----------------------

 Comments (click here to add a non-facebook comment)
Home | FAQs | Privacy | Terms | Advertise | Contact
Top 100 Tab Sites