Give Kudos?
Are you sure you want to give kudos to Koichi Kondo?

Add To Songbook?
Are you sure you want to add this song to your songbook?


2,711 bands | 35,089 songs
Search: Register FREE! | Login
Browse Songs:
Browse Bands:
Tool Panel
Discuss This Song

1 2 3 4 5



Kix Brooks - Next To That Woman (Intro)
Album: New To This Town (2012)
Submitter: Koichi Kondo (473) on 5/25/13
Month Views: 14 | Total Views: 1,730
Moderator: justinrbird39 | Report This Song?
Song Tools

Comment

Songbook

Kudos

Show Chords

Print

Next To That Woman
Written by Kix Brooks & Rivers Rutherford
Recorded by Kix Brooks

(No Capo)

Intro.:
   (D)                   (C)
E: |-------5-------------|-------15----------------|
B: |----5/7--5/7/5-------|--15/17---15/17/15-------|
G: |---------------7-----|------------------17-----|
D: |---------------------|-------------------------|
A: |---------------------|-------------------------|
E: |---------------------|-------------------------|

   (G)                             (D)
E: |---------10--------------------|-----------------------|
B: |----10/12---10/12/10-----10-12-|10----------/7-10-7--/5|
G: |--------------------12-12------|-----------------------|
D: |-------------------------------|-----------------------|
A: |-------------------------------|-----------------------|
E: |-------------------------------|-----------------------|
 Comments (click here to add a non-facebook comment)
Home | FAQs | Privacy | Terms | Advertise | Contact
Top 100 Tab Sites