Give Kudos?
Are you sure you want to give kudos to Rondo Fondu?

Add To Songbook?
Are you sure you want to add this song to your songbook?


2,725 bands | 35,155 songs
Search: Register FREE! | Login
Browse Songs:
Browse Bands:
Tool Panel
Discuss This Song

1 2 3 4 5



Lee Greenwood - God Bless The U.s.a - 2 Guitars (Tab)
Album: American Patriot (2007)
Submitter: Rondo Fondu (12) on 4/2/04 1 comment
Month Views: 16 | Total Views: 4,677
Moderator: Ray Terry | Report This Song?
Song Tools

Comment

Songbook

Kudos

Show Chords

Print

God Bless The U.S.A.
By Lee Greenwood


Gtr I   Acoustic Capo 3
Gtr II  Acoustic

Standard Tunings

 Intro
  Moderately Q=72
 4/4
  Gtr I
  E E E E E E E E   E E E E E E E S S   E E E E E E E E   E E E E H
|-----------------|---------3---------|-----------------|---------3----||
|-----3-------2---|-----0-----0-------|-----3-------2---|-----0--------||
|---2---2---2---2-|---0---0-----0-----|---2---2---2---2-|---0---0------||
|-0-------0-------|-0-----------------|-0-------0-------|-0------------||
|-----------------|---------------0h2-|-----------------|--------------||
|-----------------|-------------------|-----------------|--------------||


 Verse
  E E E E S S E E E   E E E E E E E E   E E E E E E E E
|---------0h2-------|---------3-------|-3-------0-------|
|-----3-------3-----|-----3-----3-----|-----0-----0-----|
|---2---2-------2---|-0-----0-----0---|---0---0-----0---|
|-0---------------0-|---0-----------0-|-2-------------2-|
|-------------------|-----------------|-----------------|
|-------------------|-----------------|-----------------|


  E E E E E E E E   E E E E S S E E S S   E E E E E E E E
|-0---------------|---------0h2---------|------------------|
|-------1-2-----2-|-----3-------3-------|---------2--------|
|-----0-------0---|---2---2-------2-----|-------2-----2----|
|---2-------2-----|-0---------------0h2-|-4---4---------4--|
|-3-------0-------|---------------------|---4-------4------|
|-----------------|---------------------|------------------|


  E E E E E E E E   E E E E E E E E   E E E E Q  Q
|-----------------|-----------------|------------3--||
|-0---------0-----|-3---3-----3-----|-----0---0--0--||
|---0---0-----0---|---------4-----4-|-0-------0-----||
|-2-------2-----2-|---4---4-----4---|---0---0-------||
|-----2-----------|-2---------------|---------------||
|-----------------|-----------------|-3-------------||


 Chorus
  $
   E E E E E E E E   Q   E E Q   E E   E E E E E E E E
|------------------|-3---3-3-2---2-2-|-----------------|
|-^2-------2-------|-3---3-3-3---3-3-|-2-------2-------|
|-^2---2-------2---|-0---0-0-2---2-2-|-2---2-------2---|
|-^2-2---2-------2-|-0---0-0-0---0-0-|-2-2---2-------2-|
|-^4---------4-----|-2---2-2---------|-4---------4-----|
|------------------|-----------------|-----------------|
|
| Gtr II
|  W                 E E E E E E E E   W
|-^0---------------|-----1-------1---|-0---------------|
|-^1---------------|---1-------1-----|-1---------------|
|-^0---------------|-3-----3-2-----3-|-0---------------|
|-^2---------------|-----------------|-2---------------|
|------------------|-----------------|-----------------|
|------------------|-----------------|-----------------|


  Q   E E Q   Q     Q  E E   Q   E E   Q   E E Q   E E
|-3---3-3-2---2---|-2--2-----2---2-2-|-3---3-3-2---2-2-|
|-3---3-3-3---3---|-3--3-----3---3-3-|-3---3-3-3---3-3-|
|-0---0-0-2---2---|-4--2-----2---2-2-|-0---0-0-2---2-2-|
|-0---0-0-0---0---|-4--0-----0---0-0-|-0---0-0-0---0-0-|
|-2---2-2---------|-2--------x---x-x-|-2---2-2-x---x-x-|
|-----------------|----------2---2-2-|-3---3-3-2---2-2-|
|
| E E Q   E E E E   Q  e S S Q.    E   Q.    E Q.    E
|-----1---1-------|------------------|-----------------|
|---1-----1-------|------------------|-----------------|
|-3-------2-------|------------------|-----------------|
|-----------------|-0--3-------------|-----------------|
|-----------0-1-3-|----------0-----0-|-1-----1-0-----0-|
|-----------------|------1-3---------|-----------------|


                           To Coda
  Q   E E Q   E E   Q   E E Q  Q    E E E E E E E E
|-0---0-0-2---2-2-|-2---2-2-3--0--|-----------------|
|-0---0-0-3---3-3-|-3---3-3-3--2--|-----3-------2---|
|-0---0-0-2---2-2-|-2---2-2-0--2--|---2---2---2---2-|
|-2---2-2-0---0-0-|-0---0-0-0--2--|-0-------0-------|
|-2---2-2-x---x-x-|-x---x-x-2--0--|-----------------|
|-0---0-0-2---2-2-|-2---2-2-3-----|-----------------|
|
| E E E E E E E E   E E E E Q  Q    W
|-----------------|-1-------------|-----------------|
|-----3---1-------|---1-----3-----|-1---------------|
|---3---3-----2---|-----2---3--3--|-x---------------|
|-5---------3-----|---------3--x--|-3---------------|
|---------0-----0-|-0-----0-1--3--|-----------------|
|-----------------|---------------|-----------------|


   E  E E E E E E S S   E E E E E E E E   E E E E H
|-----------3---------|-----------------|---------3----||
|-------0-----0-------|-----3-------2---|-----0--------||
|-----0---0-----0-----|---2---2---2---2-|---0---0------||
|--0------------------|-0-------0-------|-0------------||
|-----------------0h2-|-----------------|--------------||
|---------------------|-----------------|--------------||
|
| +W                    W                 W
|---------------------|-----------------|--------------||
|-(1)-----------------|-----------------|--------------||
|-(x)-----------------|-----------------|--------------||
|-(3)-----------------|-----------------|--------------||
|---------------------|-----------------|--------------||
|---------------------|-----------------|--------------||


 Verse
  E E E E S S E E E   E  E E E E E E E   E   E E E E E E E
|---------0h2-------|----------3-------|-3---------0-------|
|-----3-------3-----|------3-----3-----|-------0-----0-----|
|---2---2-------2---|-0------0-----0---|-----0---0-----0---|
|-0---------------0-|----0-----------0-|-2---------------2-|
|-------------------|------------------|-------------------|
|-------------------|------------------|-------------------|
|
| W                   H.           Q     H..             E
|-------------------|------------------|-------------------|
|-------------------|------------------|-------------------|
|-------------------|--------------5s==|=3-----------------|
|-------------------|--------------7s==|=5---------------3-|
|-------------------|------------------|-------------------|
|-------------------|------------------|-------------------|


  E E E E E E E E   E  E E E S S E E S S   E E E E E E E E
|-0---------------|----------0h2---------|------------------|
|-------1-2-----2-|------3-------3-------|---------2--------|
|-----0-------0---|----2---2-------2-----|-------2-----2----|
|---2-------2-----|-0----------------0h2-|-4---4---------4--|
|-3-------0-------|----------------------|---4-------4------|
|-----------------|----------------------|------------------|
|
| H       H         H.             E E     W
|-----------------|----------------------|------------------|
|-----------------|----------------1s6---|-5----------------|
|-----------------|----------------------|------------------|
|-1-------2-------|-3--------------------|------------------|
|-----------------|----------------------|------------------|
|-----------------|----------------------|------------------|


                                                  D.S. al Coda
  E E E E E E E E   E  E E E E E    E  E    E  E E E Q     Q
|-----------------|----------------------|-----------------3----||
|-0---------0-----|-3----3-----3---------|-------0---0-----0----||
|---0---0-----0---|----------4---------4-|--0--------0----------||
|-2-------2-----2-|----4---4--------4----|-----0---0------------||
|-----2-----------|-2--------------------|----------------------||
|-----------------|----------------------|--3-------------------||
|
| W                 H.           a  Q      +H.          a  Q
|-----------------|--------------1-(1)---|-(1)----------1-(1)---||
|-3---------------|--------------1h=3----|-(3)----------1h=3----||
|-3---------------|----------------------|--------------3-(3)---||
|-5---------------|----------------------|----------------------||
|-----------------|----------------------|----------------------||
|-----------------|----------------------|----------------------||


  &
  E E E E  E  E E   E     Q  Q  Q  Q
|-2---------------------|-
 Comments (click here to add a non-facebook comment)
well since everyone else on the site has made a comment here, I'm feeling left out. Great tab!
-falgorn | 12/13/2004
Home | FAQs | Privacy | Terms | Advertise | Contact
Top 100 Tab Sites