Give Kudos?
Are you sure you want to give kudos to WildCard76?

Add To Songbook?
Are you sure you want to add this song to your songbook?


2,635 bands | 34,516 songs
Search: Register FREE! | Login
Browse Songs:
Browse Bands:
Tool Panel
Discuss This Song

1 2 3 4 5





Little Texas - Amy's Back In Austin (Solo)
Album: Kick a Little (1994)
Submitter: WildCard76 (224) on 1/18/03
Month Views: 25 | Total Views: 4,232
Moderator: mo_freestyle | Report This Song?
Song Tools

Comment

Songbook

Kudos

Show Chords

Print

AMY'S BACK IN AUSTIN
Little Texas


First Guitar Solo

E--------------------------------------------------------------------------
B--------------15-----13-----------------------------------15------(15)----
G----b14-r14------14-----16-14p12--12h14--------------12-------------------
D----------------------------------------14/12-10/14-----------------------
A--------------------------------------------------------------------------
E--------------------------------------------------------------------------

E---------------------------------------------------15--b17----------------
B-------------------------------------------------15--------17/15--17--15--
G---14/12------12------------------------12--14/16-------------------------
D---14/12------12---14-----------------------------------------------------
A----------------------12/10--10---12/14-----------------------------------
E--------------------------------------------------------------------------
 Comments (click here to add a non-facebook comment)
Home | FAQs | Privacy | Terms | Advertise | Contact
Top 100 Tab Sites