Give Kudos?
Are you sure you want to give kudos to guitarviper?

Add To Songbook?
Are you sure you want to add this song to your songbook?


2,681 bands | 34,877 songs
Search: Register FREE! | Login
Browse Songs:
Browse Bands:
Tool Panel
Discuss This Song

1 2 3 4 5





Little Texas - God Blessed Texas (Tab)
Album: Big Time (1993)
Submitter: guitarviper (10) on 2/5/03
Month Views: 25 | Total Views: 4,903
Moderator: mo_freestyle | Report This Song?
Song Tools

Comment

Songbook

Kudos

Show Chords

Print

God Blessed Texas
Little Texas
Tabbed by Guitarviper

Intro:
 (tremolo picking)
-------------------------------------------------------------------------
--2--2--2--2--2-----2-----2-----2---2-3-3brbrbr--2-----------------------
--2--2--2--2--2-----2--2--2---2-2-2-2-4-4brbrbr--2-2----2--2--2----------
--2--2--2--2--2-----2---------2---2--------------2-2----2--2--2----------
--0--0--0--0--0-----0----------------------------0-0----0--0--0-----2-0--
------------------------------------------------------------------0------

--------------------------------------------------------------------------------------------------
--3-3p2---2--3--3p2-3-2--3-3p2---2--3-3p2---------3-3p2----2----3--3p2---2---3-3p2---2-3-3p2-2----
--2-2-----2-----2--------2-2-----2--2---------2---2-2------2----2--------------2-----2-2-------2--
--4-4p2---2--4--4p2-4-2--4-4p2---2--4-4p2-2h4-----4-4p2--4----2-4--4p2-4-2---4-4p2---2-4-4p2-4----
--------0----------------------0----------------0--------0-----------------0-------0--------------
--------------------------------------------------------------------------------------------------


Verse:
-----------------------------------------------------------------------------------
------------------------------------3-3p2---2--3-3-2-------------------------------
----2-----2-----2---2-----2-----2---2-2--------2-2-----2-1-------------------------
------4-2-----4-------4-2---2-4-----4-4p2---2--4-4-2-2-----2-----2----2-2---2---2--
--0-----0---0-----0-----0---------0-------0------------------4------4-2---4---4----
---------------------------------------------------------------0-------------------

-----------------------------------------------------------------------------------
----3-3p2---2--3-3p2-------------------------------------3-3p2---2--3-3-2----------
----2-2------------------2---2-----2---2---2-----2-------2-2--------2-2------------
----4-4p2---2--4-4p2-2h4-------4-2---4-------4-2---4-2---4-4p2---2--4-4-2---2-2----
--0-------0----------------0-----0-------0-----0-------0-------0----------2-2---4--
-----------------------------------------------------------------------------------

-------------------------------------------------
------------------------3-3-2---2----------------
------------------------2-2-----2----------------
----2---2-2-----2---2---4-4-2-4------------------
------4-2---4-----4---0-------0---0-2-2-3-3-4-4--
--0-----------0----------------------------------


Chorus:
----------------------------------------------------------------------------------
------------------------------2---------------------------------------------------
--2-4---2-4---2-4-2---------------------2---2---4-4---2-4-2---4-4---2-4-2---------
--0---0-0-0-0-0-0-0---2-4---2-4---2-4-2---4---0-0---0-0-0---0-0---0-0-0--2-4/5-2--
----------------------0---0-0---0----------------------------------------0-----0--
----------------------------------------------------------------------------------
                                     During second chorus, start chorus again at the *'s for solo
------------------------------------------------*-----------------------------------------------------
------------------------------------------------*-------3-3p2---2--3-3p2-3-2--3-3p2---2-3-3p2---------
------------------------------------------------*-------2-2-----2----2--------2-2-----2-2----------2--
4---2-2-4-------2-------2------2-------2------2-*-------4-4p2---2--4-4p2-4-2--4-4p2---2-4-4p2--2h4----
--4-0-----4-2-4----2-4-----4-------4----------0-*-----0-------0---------------------0-----------------
------------------0---0--0---0---0---0---0-3----*-0-2-------------------------------------------------


Outro:
------------------------------------------------------
--------3-3p2---2--3-3p2-3-2--------------------------
--------2-2-----2----2-----------------------------2--
--------4-4p2---2--4-4p2-4-2--7p5-4-5p4---4-2-0----2--
------0-------0-------------------------0-------3b-0--
--0-2-------------------------------------------------
 Comments (click here to add a non-facebook comment)
Home | FAQs | Privacy | Terms | Advertise | Contact
Top 100 Tab Sites