Give Kudos?
Are you sure you want to give kudos to 6stringer?

Add To Songbook?
Are you sure you want to add this song to your songbook?


2,680 bands | 34,871 songs
Search: Register FREE! | Login
Browse Songs:
Browse Bands:
Tool Panel
Discuss This Song

1 2 3 4 5





Little Texas - Southern Grace (Intro)
Album: Kick a Little (1994)
Submitter: 6stringer (1) on 12/31/02
Month Views: 11 | Total Views: 2,684
Sound Byte: Listen
Moderator: mo_freestyle | Report This Song?
Song Tools

Comment

Songbook

Kudos

Show Chords

Print

I edited the last line. It's just too hard to make it sound like the real thing playing like it was. 
So I simplified it.


-------3---------3-----------3-----------2---2---------2------2------
---------3-----------------3-----3-------3-----3-----3------3--------
-----------0---0---------0---------3-----2-------2-0-----------------
-------------2-------0h2---------------------------------4-----------
--3------------------------------------------------------------------
---------------------------------------------------------------------

---------------3---------3---------3----------2---2---------2----2---
-----------------3-----3---------3-----3------3-----3-----3----------
-------------------0-----------0---------0----2-------2-0------------
-5-4-2-0-------------2-----0h2--------------------------------4------
---------3-----------------------------------------------------------
---------------------------------------------------------------------

-3---2-3----
---0--------
------------
-5---4-5----
------------
------------
 Comments (click here to add a non-facebook comment)
Home | FAQs | Privacy | Terms | Advertise | Contact
Top 100 Tab Sites