Give Kudos?
Are you sure you want to give kudos to Deleted Member?

Add To Songbook?
Are you sure you want to add this song to your songbook?


2,660 bands | 34,721 songs
Search: Register FREE! | Login
Browse Songs:
Browse Bands:
Tool Panel
Discuss This Song

1 2 3 4 5





Little Texas - You and Forever and Me (Chord)
Album: First Time for Everything (1992)
Submitter: Deleted Member (0) on 9/21/01 1 comment
Month Views: 6 | Total Views: 3,938
Moderator: mo_freestyle | Report This Song?
Song Tools

Comment

Songbook

Kudos

Show Chords

Print

Intro:

 G                         C                        G                   1/2
|-----3------------------------0--------------------------3------------------
|----3------------------------1--------------------------3---------8---10^---
|---0------------------------0--------------------------0-------7/9--9-------
|--0-----------5---7/9~~----2----------5---5-----------0---------------------
|-2--------5h7---7---------3-------5h7---7---7/9~~----2----------------------
|3---------------------------------------------------3-----------------------

                             C  D
|----------------------------------------------------------------------------
|--r10-8h10p8----------------------------------------------------------------
|---------------9-7/9~~--(9)/11-12~~-----------------------------------------
|----------------------------------------------------------------------------
|----------------------------------------------------------------------------
|----------------------------------------------------------------------------

1st Verse:

G
The moon is off my shoulder,
    C
the sun is in my eyes.
G
Almost to my hometown,
     C
it's just another mile
Am          G             Am           G   
Memories surround me of an old familier time.
Am              G          Am                    Am7/D
Life was simple then, when your love was mine.


CHORUS:
              G   Am       Am7/D
There's a cool wind on the desert tonight.
      G               C           Am              Am7/D
I can almost see your golden hair flying in the moonlight.
G Bm          C
Ooh, it was a restless kind of free,
             Am         Am7/D       G
when it was, you and forever and me.


2nd Verse
I pulled off the highway on your side of town
Make the turn past the railroad tracks as the sun goes down.
I remember how you would wait by the front porch light.
You were always ready to take a midnight ride.

Bridge:
Em                         A           Am
Sometimes love is lost and never found.
           G             C             Am11/D
But I just had to see if you're still around.

CHORUS

  Am7/D     Am11/D
|-0---------5---------
|-1---------5---------
|-0---------5---------
|-0---------5---------
|-x---------5---------
|-x---------x--------- 
 Comments (click here to add a non-facebook comment)
Needs a Cm chord around the word free. Good tab though.
-bigdreamer | 7/22/2005
Home | FAQs | Privacy | Terms | Advertise | Contact
Top 100 Tab Sites