Give Kudos?
Are you sure you want to give kudos to axehappy?

Add To Songbook?
Are you sure you want to add this song to your songbook?


2,725 bands | 35,155 songs
Search: Register FREE! | Login
Browse Songs:
Browse Bands:
Tool Panel
Discuss This Song

1 2 3 4 5



LoneStar - Amazed (Solo)
Album: From There to Here, Greatest Hits (2003)
Submitter: axehappy (66) on 4/24/02 1 comment
Month Views: 27 | Total Views: 13,310
Moderator: mo_freestyle | Report This Song?
Song Tools

Comment

Songbook

Kudos

Show Chords

Print

Lonestar - Amazed (solo)

By axehappy - axehappy at countrytabs.com

***********************************************************************

x   =   mute                                 \    =   slide down

h   =   hammer-on                            b    =   bend

***********************************************************************


                                    w/bar
E-------------------------------------------------------------
B-------------------------------------------------------------
G-------------------------------------------------------------
D-----------------11-11h13-11---------------------11-11h13-11-
A--x-11\--11h13/14------------14-13-11\---11h13/14------------
E-------------------------------------------------------------


E------------------|
B------------------|
G-------11-11b-----|
D--11/13-----------|
A------------------|
E------------------|
 Comments (click here to add a non-facebook comment)
Woops that was meant to be a ten sorry. Must of hit my scroll button im sorry.
-yinielin | 6/11/2003
Home | FAQs | Privacy | Terms | Advertise | Contact
Top 100 Tab Sites